Oops, an error
Loading. Please wait.

Lullaby For A Snow Faced Girl Tab

306 views 1 this week
no commentswrite comment
1 2 3 4 5
please rate
add to favorites
launch autoscroll
font size
0
reset
how to read this tab
guitar tuner
Autoscroll
slow
fast
+/-
esc
set tempo
stop
Help us to improve Ultimate-Guitar.com Take our survey!
×
Author
Difficulty
Tuning
Capo
advanced
D A D G B E
5th fret
Capo 5th Fret:
Drop D:

e|-2---2---4-5---0-----2---2---4-5--5-------4-4-2-2-------|
B|-3-------------2-----3------------3-------3-3-3-3-------|
G|-2---2---2-2---2-----2---2---2-2--2-------2-2-2-2-------|
D|---0---0-----0---------0---0----------------------------|
A|--------------------------------------------------------|
E|--------------------------------------------------------|
                 "Sleep"           "Peacefully"

e|-2---2---4-5---0-------2---2---4-5--5-------4-4-2-2-------|
B|-3-------------2-3-2---3------------3-------3-3-3-3-------|
G|-2---2---2-2---2-------2---2---2-2--2-------2-2-2-2-------|
D|---0---0-----0-----------0---0----------------------------|
A|----------------------------------------------------------|
E|----------------------------------------------------------|
                "like the.."        "this morning"

e|-----0-------0-------------------|
B|---------------------2-------2---|
G|-------2-------2-------2-------2-|
D|---2-------2-------4-------4-----|
A|-0-------0-----------------------|
E|-----------------4-------4-------|

e|-----0-------0-----------------------------------------------------------|
B|---------------------2-------0h2---------0---------0---------------------|
G|-------2-------2-------2---------------------2-------2-----2------2h4----|
D|---2-------2-------4-------4-----2---0-----------0-----------2--------2--|
A|-0-------0-----------------------------------------------2-------2-------|
E|-----------------4-------4---------0-----------0-------2-------2---------|
   "with faith in..."

e|------------------------------|
B|-----0-------0h2-----------0--|
G|-------2---------2-----2------|
D|---0-------0-------------2----|
A|---------------------2--------|
E|-0-------0---------2----------|
  "A whispered promise..."

e|-2---2---4-5---0-----2---2---4-5--5-------4-4-2-2-------|
B|-3-------------2-----3------------3-------3-3-3-3-------|
G|-2---2---2-2---2-----2---2---2-2--2-------2-2-2-2-------|
D|---0---0-----0---------0---0----------------------------|
A|--------------------------------------------------------|
E|--------------------------------------------------------|
                 "Lullaby"           "For a snow..."

e|-2---2---4-5---0-------2---2---4-5--5-------4-4-2-2-------|
B|-3-------------2-3-2---3------------3-------3-3-3-3-------|
G|-2---2---2-2---2-------2---2---2-2--2-------2-2-2-2-------|
D|---0---0-----0-----------0---0----------------------------|
A|----------------------------------------------------------|
E|----------------------------------------------------------|
                "Is what I'll"        "Watching you..."


e|-----0-------0-------------------|
B|---------------------2-------2---|
G|-------2-------2-------2-------2-|
D|---2-------2-------4-------4-----|
A|-0-------0-----------------------|
E|-----------------4-------4-------|
       "Its 3:05..."

e|-----0-------0------------------------------------------------------------|
B|---------------------2-------0h2---------0---------0h2--------------------|
G|-------2-------2-------2---------------------2---------2-----2------2h4---|
D|---2-------2-------4-------4-----2---0-----------0-------------2--------2-|
A|-0-------0-------------------------------------------------2-------2------|
E|-----------------4-------4---------0-----------0---------2-------2--------|
   "On Monday..."

e|-----------------------------------| |--------------------------------|
B|-----0-------0h2-----------0-------| |----2-------2-------0-------0---|
G|-------2---------2-----2-----2---2-| |--2---2-------2-------2-------2-|
D|---0-------0-------------2-----2---| |------------------0-------0-----| x4
A|---------------------2-------------| |----------4---------------------|
E|-0-------0---------2---------------| |4-------4-------0-------0-------|
  "know, We'll be fine..."               "We'll be fine" x3

e|---------------0-5-(0)----0-----------------------5---0----|
B|-----2---3p2------------------3---2---2-------2------------|
G|-------2----2-----------------------------2----------------|
D|---2---------2----------2----------------------------------|
A|-0--------------------0-----0---0---0---0---0---0---0---0--|
E|-----------------------------------------------------------|

e|---------------------------0-5---5---4---0-----------------0-5---|
B|----3---2---------3---3p2--------------------2-----3-3p2---3-3---|
G|------------2---2--------2-----------------------2------2--2-2---|
D|--------------------------2------------------------------2-0-0---|
A|--0---0---0---0-----0----------0---0---0---0---0-----------------|
E|-----------------------------------------------------------------|
Suggest correction
What's this?
You can suggest a correction to this tab. Community and Mods will review your correction and vote to approve or reject it.
comments
We did not receive enough feedback on this tab! Please rate:
print report bad tab
1 2 3 4 5
guest
You may want to rate the tab now too:
select rating
Please do not post tabs as comments. Select "correction" instead!