Oops, an error
Loading. Please wait.

No Time Flat Tab

5,348 views 1 this week
4 commentsread comments
1 2 3 4 5
1 last vote to show rating
add to favorites
launch autoscroll
font size
0
reset
how to read this tab
guitar tuner
Autoscroll
slow
fast
+/-
esc
set tempo
stop
Help us to improve Ultimate-Guitar.com Take our survey!
×
Intro/Verse

---------------------------------------------------------------------------|
---------------------------------------------------------------------------|
------------------6--6-6-4-6-4---------------------------------------------|
--6-6-4-4-4-4---0-0-0--0-0-0---2--2--2--2--2--2-----9-9-9-7-9-7------------|
--0-0-0-0-0-0---5-5-5--5-5-5----------4--4--4--4---------------------------|
------------------------------------2--2--2--2--2--2-----7-7-7-7-7-7-------|
Suggest correction
Give kudos to tab author, rate the tab!
1 2 3 4 5
comments
print report bad tab
4 comments total. Showing first comments.
0 reply
less than that 210 Feb 27, 2006 10:20 AM

pretend that's aligned better.

0 reply
Westy 10 Mar 06, 2006 09:04 PM

Yeah alright I had something pretty similar worked out with chords like

e--------------- --------------
B--------------- --------------
G--------------- -------------- with the same kinds of
D---6--4--11---9 --2----------- rhythms and shifts and
A---x--x---x---x --x--4--12--11 pulloffs etc.
E---5--5--10--10 and then --2--2--10--10


then at like :33 he uses the scale

e- -5-7
B- -5-7
G- -4-6
D- -4-7
A- -4-7
E-5-7

Starting on the C# at 6 on the G string, haven't gone through the whole song to figure out the entire pattern but anyone who wants to should be able to pick it up pretty easily

Just thought it was a happy lil song to strum

0 reply
Westy 10 Mar 06, 2006 09:05 PM

errr yeah, pretend like that's equally more aligned

2
x 4 12 11
2 2 10 10

guest
You may want to rate the tab now too:
select rating
Wanna post a correction for this tab? Suggest correction