Oops, an error
Loading. Please wait.

Not Over You Yet Tab

2,242 views 3 this week
1 commentread comment
1 2 3 4 5
worth learning
x 3
add to favorites
launch autoscroll
font size
0
reset
how to read this tab
guitar tuner
Tab Pro tools
  • play this tab
  • loop segment
  • change instrument
  • show fretboard
  • metronome
Autoscroll
slow
fast
+/-
esc
set tempo
stop
Contributor
Difficulty
intermediate
tabed by Nick Stola


i think this tab is really close but not perfect.  the bridge was a little hard and im 
sure if that is correct but it sounds good. enjoy

my email: letingoffhapynes@aim.com


standered tunning no capo


Not Over You Yet
   by kevin devine

                intro and vers

       "you were always cute..."/"no i will not call..."

e|---------------------------------------------------------------------------|
B|---------------------------------------------------------------------------|
G|-1--3--4--4----------------------------------------------------------------|
D|-2--4--6--6----------------------------------------------------------------|
A|-2--0--0--0----------------------------------------------------------------|
E|-0-------------------------------------------------------------------------|

       chores

 "your bitin your lip..im not over you yet..."/"id still cut my hair..asked right away..."

e|---------------------------------------------------------------------------|
B|---------------------------------------------------------------------------|
G|-1--3--4--4--6--6--8--8----------------------------------------------------|
D|-2--4--6--6--7--7--9--9----------------------------------------------------|
A|-2--0--0--0--7--7--9--9----------------------------------------------------|
E|-0-------------------------------------------------------------------------|


          bridge

        "your still on my towels..."

e|-4--5--------4--5--7--7----------------------------------------------------|
B|-4--5--------4--5--7--7----------------------------------------------------|
G|-5--6--1--1--5--6--8--8----------------------------------------------------|
D|-6--7--2--2--6--7--9--9----------------------------------------------------|
A|-6--7--2--2--6--7--9--9----------------------------------------------------|
E|-4--5--0--0--4--5--7--7----------------------------------------------------|


end on

e|---------------------------------------------------------------------------|
B|---------------------------------------------------------------------------|
G|-1-------------------------------------------------------------------------|
D|-2-------------------------------------------------------------------------|
A|-2-------------------------------------------------------------------------|
E|-0-------------------------------------------------------------------------|
comments
We did not receive enough feedback on this tab! Please rate:
print report bad tab
1 2 3 4 5
1 comment total.
0 reply
brianytreggah wrote on August 22 2014, 04:05 pm

Lack of accuracy.

I want to post or [tab]
guest
You may want to rate the tab now too:
select rating
Please do not post tabs as comments. Select "correction" instead!