Oops, an error
Loading. Please wait.

Youre Trailing Yourself Tab

2,109 views 1 this week
no commentswrite comment
1 2 3 4 5
please rate
add to favorites
launch autoscroll
font size
0
reset
how to read this tab
guitar tuner
Tab Pro tools
  • play this tab
  • loop segment
  • change instrument
  • show fretboard
  • metronome
×
Best way to learn
"Youre Trailing Yourself"
Autoscroll
slow
fast
+/-
esc
set tempo
stop
Difficulty
intermediate
Kevin Devine Rocks!!!

I believe this tab is 99.999998% correct. The 8 pulloff to 7 part might be a tad off but 
pretty damn close!!! Let me know if you have any questions or comments at 
Thanks and ENJOY!!!

Kevin Devine - You're Trailing Yourself

Standard Tuning - E


 The sputter and blink of the street lamp....
e------------------------------------------------------------------------|
B----0-00-0----0-00-0------1-1-1-1----1-1-1-1------5-5-5-5-------7-7-7-7-|
G--00-0--0----0-0--0----2-2-2---2----2-2---2----5-5-5---5-5---7-7-7---7--|
D------------------------------------------------------------------------|
A------------------------------------------------------------------------|
E------------------------------------------------------------------------|

     Your pockets weighted down with quarters.....
e----------------------------------------------------------------------|
B----0-00-0----0-00-0------1-1-1-1------5-------7----------------------|
G--00-0--0----0-0--0----2-2-2---2----5-5-5---7-7-7---------------------|
D----------------------------------------------------------------------|
A----------------------------------------------------------------------|
E----------------------------------------------------------------------|
                    You spray paint cinnamon on vines....
e-------------------------------------------------------------------------|
B----0-00-0----0-00-0------5-5-5-5------5-5-5-5------7-7-7-7------7-7-7-7-|
G--00-0--0----0-0--0----5-5-5---5----6-6-6---6----7-7-7---7----8-8-8---8--|
D-------------------------------------------------------------------------|
A-------------------------------------------------------------------------|
E-------------------------------------------------------------------------|

e---------3---------3---------3---------3------------------------------|
B----0-00------0-00------0-00------0-00--------------------------------|
G--00-0--0----0-0--0----0-0--0----0-0--0-------------------------------|
D----------------------------------------------------------------------|
A----------------------------------------------------------------------|
E----------------------------------------------------------------------|
  So you spend the next week playin....
e----------------------------------------------------3-----------8^7-7-|
B----0-00-0----0-00-0------1-1-1-1----1-1-1-1------5--5-5------7----8--|
G--00-0--0----0-0--0----2-2-2---2----2-2---2----5-5-5--5----7-7-7------|
D----------------------------------------------------------------------|
A----------------------------------------------------------------------|
E----------------------------------------------------------------------|
               All the stories you've invested with the masochist....
e---------3------------------------------3------5------------|
B----0-00------0-00-0------1-0-1--------5-5----7-7-----------|
G--00-0--0----0-0--0----2-2-2---2-0----5------7--------------|
D------------------------------------------------------------|
A------------------------------------------------------------|
E------------------------------------------------------------|
                       Those tired tricks that you play.....
e----------------------------3-----------3-----------5-----------5--------|
B----0-00-0----0-00-0------5--5-5------5--5-5------7--7-7------7--7-7-----|
G--00-0--0----0-0--0----5-5-5--5----6-6-6--6----7-7-7--7----8-8-8--8------|
D-------------------------------------------------------------------------|
A-------------------------------------------------------------------------|
E-------------------------------------------------------------------------|

  But for now its ok.....
e--0--------2--------3--------3----------------|
B--1--------3--------3--------3----------------|
G--2--------2--------0--------0----------------|     X4
D--2--------0--------0--------0----------------|
A--0-----------------2--------2----------------|
E--------------------3--------3----------------|

e--3-----------|
B--3-----------|
G--0-----------|
D--0-----------|
A--2-----------|
E--3-----------|

   You wake and cut your initials in cheap glass....
e--------------------------------3-------------------------------8^7-----|
B----0-00-0----0-00-0------1-1-1------1-1-1-1------5-5-5-------7----8----|
G--00-0--0----0-0--0----2-2-2---2----2-2---2----5-5-5---5---7-7-7----7---|
D------------------------------------------------------------------------|
A------------------------------------------------------------------------|
E------------------------------------------------------------------------|

   And all those rocks that rope your neck....
e---------3------------------3----------3------5------------|
B----0-00------0-00-0------1--1-1------5-5----7-7-----------|
G--00-0--0----0-0--0----2-2-2--2------5------7--------------|
D-----------------------------------------------------------|
A-----------------------------------------------------------|
E-----------------------------------------------------------|

   And you'll strip the sting from those stains....
e---------3------------------3-----------3-----------5-----------5--------|
B----0-00------0-00-0------5--5-5------5--5-5------7--7--------7--7-7-----|
G--00-0--0----0-0--0----5-5-5--5----6-6-6--6----7-7-7--7----8-8-8--8------|
D-------------------------------------------------------------------------|
A-------------------------------------------------------------------------|
E-------------------------------------------------------------------------|

e---------3---------3---------3---------3------------------------------|
B----0-00------0-00------0-00------0-00--------------------------------|
G--00-0--0----0-0--0----0-0--0----0-0--0-------------------------------|
D----------------------------------------------------------------------|
A----------------------------------------------------------------------|
E----------------------------------------------------------------------|


And that's it!
comments
We did not receive enough feedback on this tab! Please rate:
print report bad tab
1 2 3 4 5
I want to post or [tab]
guest
You may want to rate the tab now too:
select rating
Please do not post tabs as comments. Select "correction" instead!