Oops, an error
Loading. Please wait.

Sinorita Mas Fina Tab

829 views 1 this week
no commentswrite comment
1 2 3 4 5
3 more votes to show rating
add to favorites
launch autoscroll
font size
0
reset
how to read this tab
guitar tuner
Autoscroll
slow
fast
+/-
esc
set tempo
stop
Help us to improve Ultimate-Guitar.com Take our survey!
×
Author
Difficulty
novice
-------------------------------------------------------------------------------
                             Sinorita Mas Fina - Kevin Fowler
-------------------------------------------------------------------------------
Tabbed by:James
Email:sk8rduude1614@yahoo.com

Tuning:Standard
Guitar Solo
e|----------------------------------------------------------------/12------|
B|------------------12------------------12-----------------11-12------15---|
G|--------11-12--14-----------11-12--14-----------11-12-14--------------11~|
D|--12-14---------------12-14---------------12-14--------------------------|
A|-------------------------------------------------------------------------|
E|-------------------------------------------------------------------------|

e|--------------10---------------------------------------------------------|
B|-----------10------------------------------------------------------------|
G|--11-12-13-------13-12-10-11------12-10^1/2------------------------------|
D|-----------------------------12-------------12-11-10---------------------|
A|-------------------------------------------------------------------------|
E|-------------------------------------------------------------------------|

e|-------------------------------------------------------------------------|
B|-------------------------------------------------------------------------|
G|----------------------------------------11-12-14-12~--14-14^----11-12~---|
D|-----------12------------------12-13-14----------------------14----------|
A|--12-14-15----15-14-12--14-15--------------------------------------------|
E|-------------------------------------------------------------------------|
Trumpet Solo
e|-----------------------------------------------------------------------|
B|-----------------12---------------12-----------------------------------|
G|--12-12-12-12-12----14-12~--12-12---14-12-12-12-12-12-11-9-10-11-9-----|
D|------------------------------------------------------------------12-10| 
A|-----------------------------------------------------------------------|
E|-----------------------------------------------------------------------|

e|-------------------------------------------------------------------------|
B|-------------------------------------------------------------------------|
G|--11-11-11-11-11--------11-11-11-11-11------------------------11-12~-----|
D|-----------------14-12-----------------14-12---12-12-12-13-14------------|
A|-------------------------------------------------------------------------|
E|-------------------------------------------------------------------------|



| /  slide up
| \  slide down
| h  hammer-on
| p  pull-off
| ~  vibrato
| +  harmonic
| x  Mute note
===============================================================================
Suggest correction
Give kudos to tab author, rate the tab!
1 2 3 4 5
comments
print report bad tab
guest
You may want to rate the tab now too:
select rating
Wanna post a correction for this tab? Suggest correction