Oops, an error
Loading. Please wait.

We Are Young Tab

3,473 views 3 this week
no commentswrite comment
1 2 3 4 5
x 3
add to favorites
launch autoscroll
font size
0
reset
how to read this tab
guitar tuner
Autoscroll
slow
fast
+/-
esc
set tempo
stop
Help us to improve Ultimate-Guitar.com Take our survey!
×
Author
Difficulty
Capo
intermediate
3rd fret
Here is the tab to Kevin Hammond's cover of We Are Young originally by Fun. Please watch
the his video along with the tab. He adds a lot of accenting with palm muting and what
not that would take to long to tab. This is my first tab so sorry if it's wrong even 
though I'm 99% sure its right!

Capo: 3rd fret

Tuning: open Eb (Eb Bb Eb G Bb Eb)


Intro-

Eb|---0--------------------------------------|
Bb|---0--------------------------------------|
 G|---12-------------------------------------|
Eb|---0--------------------------------------|
Bb|---0--------------------------------------|
Eb|---0--------------------------------------|
      (Accented with palm mutes)

Give me a second I...

Eb|---0-------0--0--0--0-----0-----0----------------|
Bb|---0-------9--9--9--9-----0-----0----------------|
 G|---12------8--7--8--7-----5-----7----------------|
Eb|---0-------0--0--0--0-----5-----7----------------|
Bb|---0-------0--0--0--0-----5-----7----------------|
Eb|---0-------9--9--9--0-----5-----7----------------|
      (All are accented with palm mutes)

I know i gave it to you...

Eb|---0-----0---0---0------0--0-----0-----------|
Bb|---0-----12--9---9------0--0-----0-----------|
 G|---12----10--8---7------7--5-----7-----------|
Eb|---0-----0---0---0------7--5-----7-----------|
Bb|---0-----0---0---0------7--5-----7-----------|
Eb|---0-----11--9---9------7--5-----7-----------|
      (All are accented with palm mutes)

So by the time...

Eb|---0-----0-----0------0------0-----0-----------|
Bb|---0-----0-----9------0------0-----5-----------|
 G|---5-----7-----8------7------5-----4-----------|
Eb|---5-----7-----0------7------5-----0-----------|
Bb|---5-----7-----0------7------5-----0-----------|
Eb|---5-----7-----9------7------5-----5-----------|


Tonight, we are young...

Eb|---0-----0---0---0------0--0-----0------0-----|
Bb|---0-----12--9---9------0--0-----5------0-----|
 G|---12----10--8---7------7--5-----4------7-----|
Eb|---0-----0---0---0------7--5-----0------7-----|
Bb|---0-----0---0---0------7--5-----0------7-----|
Eb|---0-----11--9---9------7--5-----5------7-----|


So I know that I'm...

Eb|---0-----0---0-------0--0-----0------0-----|
Bb|---0-----12--9-------0--0-----5------0-----|
 G|---12----10--8-------7--5-----4------7-----|
Eb|---0-----0---0-------7--5-----0------7-----|
Bb|---0-----0---0-------7--5-----0------7-----|
Eb|---0-----11--9-------7--5-----5------7-----|
      (All are accented with palm mutes)

Tonight, we are young...

Eb|---0-----0---0---0------0--0-----0------0----|
Bb|---0-----12--9---9------0--0-----5------0----|
 G|---12----10--8---7------7--5-----4------7----|  (x2)
Eb|---0-----0---0---0------7--5-----0------7----|
Bb|---0-----0---0---0------7--5-----0------7----|
Eb|---0-----11--9---9------7--5-----5------7----|

Carry me home tonight...

Eb|---0------0------0---0------------------------|
Bb|---0------0------0---0------------------------|
 G|---5------5------7---7------------------------|  (x2)
Eb|---5------0------0---7------------------------|
Bb|---5------0------0---7------------------------|
Eb|---5------0------0---7------------------------|


Tonight, we are young...

Eb|---0-----0---0---0------0--0-----0------0-----|
Bb|---0-----12--9---9------0--0-----5------0-----|
 G|---12----10--8---7------7--5-----4------7-----|
Eb|---0-----0---0---0------7--5-----0------7-----|
Bb|---0-----0---0---0------7--5-----0------7-----|
Eb|---0-----11--9---9------7--5-----5------7-----|
      (Begining is accented with palm mutes)

Tonight, we are young...

Eb|---0-----0---0-------0--0-----0------0-----|
Bb|---0-----12--9-------0--0-----5------0-----|
 G|---12----10--8-------7--5-----4------7-----|
Eb|---0-----0---0-------7--5-----0------7-----|
Bb|---0-----0---0-------7--5-----0------7-----|
Eb|---0-----11--9-------7--5-----5------7-----|


So by the time...

Eb|---0-----0-----0------0------0-----0------------|
Bb|---0-----0-----9------0------0-----5------------|
 G|---5-----5-----8------7------5-----4------------|
Eb|---5-----0-----0------7------5-----0------------|
Bb|---5-----0-----0------7------5-----0----------0-|
Eb|---5-----0-----9------7------5-----5-------0----|
Suggest correction
Give kudos to tab author, rate the tab!
1 2 3 4 5
comments
print report bad tab
guest
You may want to rate the tab now too:
select rating
Wanna post a correction for this tab? Suggest correction