Oops, an error
Loading. Please wait.

Monsters Anonymous tab

197 views 1 this week
no commentswrite comment
1 2 3 4 5
3 more votes to show rating
add to favorites
×
Save as Personal and add changes to this tab that will be seen only by you. Learn more ›
×
You can save this tab as Personal to edit and correct it or add notes. All changes will be seen only by you. Learn more »
launch autoscroll
font size
0
reset
how to read this tab
guitar tuner
edit
Autoscroll
slow
fast
+/-
esc
set tempo
stop
Author
Difficulty
This is the version that Kevin Hearn & Boothby Graffoe performed live at the 
Cambridge Corn Exchange in September 2010, as part of the Barenaked Ladies UK tour.

Play the following through once for each verse:

 e|-------------------------------------------------------------------|
 B|-------2-------2-------5-------5-------2-------2-------5-------5---|
 G|-----2---2---2---2---6---6---6---6---2---2---2---2---6---6---6---6-|
 D|-----------2---------------6---------------2---------------6-------|
 A|---0---------------4---------------0---------------4---------------|
 E|-------------------------------------------------------------------|
 
 e|---------------------------2---------------------------------------|
 B|-------2-------2-------3-------3-------2-------2-------2-------2---|
 G|-----2---2---2---2---2---2---2---2---2---2---2---2---2---2---2---2-|
 D|-----------4-------0-----------------------2---------------2-------|
 A|---4-------------------------------0---------------0---------------|
 E|-------------------------------------------------------------------|

Kevin:

"Hello and welcome, to the first general meeting, of the monster's anonymous. I'll start it off…"

Hello my name is T-rex.
I think I've got a complex.
I always want to smash the duplex.
Oh yeah.

Hello my name is Loch Ness.
I've been living in the darkness.
I won't bore you with my regrets.
Oh no.

Boothby:

I am the will o'wisp.
What I like to do is get pissed.
Then go messing with the tourists.
In the woods.

I am the Minotaur.
For 2000 years or more.
1-0     has been the score.
Oh no.

Kevin:

Hello I am a Cyclops.
I think I'm losing my chops.
I'm addicted to my eye drop.
Oh no.

Hello I am a mummy.
This afterlife is crummy.
I want someone to un-wrap me.
Oh yeah.

Boothby:

We are the princes of the un-dead.
What our daddy did is on our heads.
He turned our coffins into bunk-beds.
Oh no.

I am Frankenstein's creation.
And here is my explanation.
Why I'm bad at procreation.
My nuts are in my neck.

Kevin:

Hello I am a giant.
If you're wondering where your car went.
Go look in my foot print.
Oh yeah

Boothby:

It's me the will o'wisp again.
I've been drinking since before 10.
If you wanna talk to me then,
Come find me in the woods.


Strum the following for the refrain/key change at the end:

(C) Finally day...(G)...light has come
(C) Don't blink your...(G)...eyes or it's gone
You'd better...(A)run...(F# minor)
You'd better...(A)run...(C# minor)
You'd better...(A)run...(C# minor)
You'd better...(D)ruuuuuuuuu(D/F#)uuuuuu(A)n

Kevin & Boothby:

Finally daylight has come.
Don't blink your eyes or it's gone.
You'd better run.
You'd better run.
You'd better run.
Better run (elongated).

"Thank you for attending the first general meeting of the monster's anonymous."


Compiled with TabPlayer :: http://www.simoneperandini.com/tabplayer/
Suggest correction
Creating personal tab
Creating personal tab
You can edit any tab online and save it as your Personal.

You can edit, replace or remove any tab part or add personal notes – all changes will be seen only by you.

Personal tabs can be accessed anytime from any device, even offline.
Learn more »
Give kudos to tab author, rate the tab!
1 2 3 4 5
comments
print report bad tab
guest
You may want to rate the tab now too:
select rating
Wanna post a correction for this tab? Suggest correction