Oops, an error
Loading. Please wait.

Alta, Fea Y Linda tab

61 views 1 this week
no commentswrite comment
1 2 3 4 5
3 more votes to show rating
add to favorites
×
Save as Personal and add changes to this tab that will be seen only by you. Learn more ›
×
You can save this tab as Personal to edit and correct it or add notes. All changes will be seen only by you. Learn more »
launch autoscroll
font size
0
reset
how to read this tab
guitar tuner
edit
Autoscroll
slow
fast
+/-
esc
set tempo
stop
    LAm             MI7
Era alta, fea y linda
SOL                  FA
  Todo en contra y todo a favor
Alta, fea y linda
Viento en contra y todos a estribor

SOL          DO               FA   (VI-0)
  No sé qué vi que nadie más vio

Porque era alta, fea y linda
Todo en contra y muy poco a favor
Alta, fea y linda
Viento en popa y a todo vapor


No sé,         que vi,        que nadie más vio
E--------------------------------------------------|
B--------------------------------------------------|
G--------------------------------------------------|
D--5-4-5-7-5-3-2-0-----------------3---------------|
A------------------3-2-3-5-7-3-5-7---5--2----------|
E------------------------------------------1-------|

Ni que         sentí,         que nadie sintió  (Puente: sol)
E--------------------------------------------------|
B--------------------------------------------------|
G--------------------------------------------------|
D--5-4-5-7-5-3-2-0-----------------3---------------|
A------------------3-2-3-5-7-3-5-7---5--2----------|
E------------------------------------------1-------|


DO            SIb
 Le sonreí como un gíl
REm                  SOL
 Ella me vio y retribuyo
No sé qué fue, ni como paso
Pero ella vio en mí
SOL                  MI      LAm
Algo que nadie en el mundo vio


Interludio: LAm-MI7-SOL-FA


LAm-MI7            SOL-FA
Alta, fea y linda
                                                                 (Puente: SOL)
E----------------------------------------------------------------------------|
B----------------------------------------------------------------------------|
G----------------------------------------------------------------------------|
D--5-4-5-7-5-3-2-0-----------------5-4-5-7-5-3-2-0-----------------3---------|
A------------------3-2-3-5-7-3-5-7-----------------3-2-3-5-7-3-5-7---5-------|
E----------------------------------------------------------------------1-----|

Me la lleve o me llevo
A algún rincón que nadie vio
No sé qué fue, ni como paso
Ella vio en mi algo que nadie en el mundo vio.


Alta, fea y linda
Todo en contra y todo a favor
Alta, fea y linda
Viento popa y a todo vapor.

No sé          qué ví          ni que sentí         Que nadie más vio.
E----------------------------------------------------------------------------|
B----------------------------------------------------------------------------|
G----------------------------------------------------------------------------|
D--5-4-5-7-5-3-2-0-----------------5-4-5-7-5-3-2-0-----------------3---------|
A------------------3-2-3-5-7-3-5-7-----------------3-2-3-5-7-3-5-7---5-------|
E----------------------------------------------------------------------1-----|

Puente: MI


LAm
Porque era alta, fea y linda...

            
            
Suggest correction
Creating personal tab
Creating personal tab
You can edit any tab online and save it as your Personal.

You can edit, replace or remove any tab part or add personal notes – all changes will be seen only by you.

Personal tabs can be accessed anytime from any device, even offline.
Learn more »
Give kudos to tab author, rate the tab!
1 2 3 4 5
comments
print report bad tab
guest
Wanna post a correction for this tab? Suggest correction