Oops, an error
Loading. Please wait.

Guacamole tab

461 views 3 this week
no commentswrite comment
1 2 3 4 5
3 more votes to show rating
add to favorites
×
Save as Personal and add changes to this tab that will be seen only by you. Learn more ›
×
You can save this tab as Personal to edit and correct it or add notes. All changes will be seen only by you. Learn more »
launch autoscroll
font size
0
reset
how to read this tab
guitar tuner
edit
Autoscroll
slow
fast
+/-
esc
set tempo
stop
-Intro- 
e-------------------------------------------| 
B-----3-----------------------3------------| 
G-----------2h-4--2-----2-----------------| 
D--------4-------------4-------------------| 
A-------------------------------------------| 
E-------------------------------------------| 
Repeat it 

e---------------------------2---------| 
B---2---------------------------------| 
G---------2h-4-2-----2--------------| 
D------5------------5----------------| 
A-------------------------------------| 
E-------------------------------------| 

e---------------------------------| 
B----4-----------------------4---| 
G-----------4h-6-4-----4--------| 
D-------7-------------7----------| 
A---------------------------------| 
E---------------------------------| 

e--------------------------------| 
B----4------------------------9-| 
G-----------4h-6-4-----4---9--| 
D-------7-------------7---------| 
A--------------------------------| 
E--------------------------------| 

E Esus4? Bm7 (vamos A llamarle '%') A 
e---------|----------|-----------|------------------------------------|---------| 
B-----0--|-----2---|------0---|----------0-------------------------|----2---| 
G-----1--|-----1---|------2---|----------4-------------------------|----2---| 
D-----2--|-----2---|------1---|----------3-------------------------|----2---| 
A---------|----------|------2---|----------4-------------------------|---------| 
E--0-----|--0------|---0-------|------------------------------------|---------| 

-Verse Nº 1- 

E (intercalar Esus4) 
Sittin? on a bencho, waitin? for the teco guacamole 
Bm7 % Bm7 
Carne con frijole?, carne con frijole? 

E Esus4 
Waitin? for the sun to shine, hopin? for the chicken yakisoba 
E Bm7 % 
Hope there?s some left over, hope there?s some left over? 

Bm7 
Ay, mami, qué está haciendo, dónde va? 

Ay, papi, no sé, pero vete ya! 
A E Bm7 
Even when the pompan takin? on a holey, guacamole? 

1º Breakdown 

e----------------------------------| 
B----0---2---4--------5------------------------4-----| 
G------------------------------4h-6--4-----5---------| 
D---------------------------6-------------6-----------| 
A---2---1---3-----------------------------------------| 
E----------------------------------| 

e----------------------------------| 
B-----4-----------------------4---------| 
G-----------4h-6--4-----4--------------| 
D--------7-------------7----------------| 
A----------------------------------------| 
E----------------------------------------| 


e----------------------------------| 
B---6-----------------------6------------| 
G---------6h-8--6-----6-----------------| 
D------9-------------9-------------------| 
A-----------------------------------------| 
E-----------------------------------------| 

% Bm7 


Samarranch, Havelange, Copa Mundo, UEFA de la FIFA 
Just like Queen Latifah, hope she got some reefah 
Solitaire, happiness, joie de vivre just? a like Lola 
Hope she? there sola, hope she? there sola 

E Bm7 % 
Guacamole, Si Señor, Por Favor! 

Ay, mami, qué está haciendo, dónde va? 
Ay, papi, no sé pero voy pa? allá! 
Even when the pompan takin? escabeche 
Uy, café con leche! 

Vamos a comer a lo de Beto, que nos hizo guacamole! 
Carne con frijole?, carne con frijole?! 
Cuchufrito, habichuela, hot tamale, trucha al escabeche, 
Con café con leche, con café con leche? 
Chimichurri, zucundún con chequendengue, Caraguatatuba 
Y uma caipiruva, y uma caipiruva? 
Un poquito de manteca, cuatro cucharada e? milanesa 
Queso con frambuesa, pongan bien la mesa! 

(Breakdown) 

Boca Juniors, River Plate, Chacarita, Diego Maradona 
Diego no perdona, Diego no perdona 
Solitaire, happiness, joie de vivre, just a like a Lola 
Hope she there a sola, hope she there a sola? 

Ay, mami que esta haciendo, donde va? 
Ay, papi no se pero voy pa? alla! 
Even when the pompan takin? on a lilly 
Don?t be so silly? 

(Repeat it) 
Guacamole, guacamole, si Señor, por favor! 

1º Breakdown

            
            
Suggest correction
Creating personal tab
Creating personal tab
You can edit any tab online and save it as your Personal.

You can edit, replace or remove any tab part or add personal notes – all changes will be seen only by you.

Personal tabs can be accessed anytime from any device, even offline.
Learn more »
Give kudos to tab author, rate the tab!
1 2 3 4 5
comments
print report bad tab
guest
Wanna post a correction for this tab? Suggest correction