Oops, an error
Loading. Please wait.

Push Your Luck tab

48 views 1 this week
no commentswrite comment
1 2 3 4 5
3 more votes to show rating
add to favorites
×
Save as Personal and add changes to this tab that will be seen only by you. Learn more ›
×
You can save this tab as Personal to edit and correct it or add notes. All changes will be seen only by you. Learn more »
launch autoscroll
font size
0
reset
how to read this tab
guitar tuner
edit
Autoscroll
slow
fast
+/-
esc
set tempo
stop
    G                             Bb
E|--3----------4-|-3----------4--|-6----------7-|-6----------7-|
A|------3-5-1----|-----3-5-1-----|-----6-8-4----|-----6-8-4----|
D|.---2----------|---2----------.|---5----------|---5----------|
G|.--------------|--------------.|--------------|--------------|
B|---------------|---------------|--------------|--------------|
E|---------------|---------------|--------------|--------------|

   G                             Bb             C#        E
e|-3----------4-|-3----------4-|-6----------7-|---------|---------
A|-----3-5-1----|-----3-5-1----|-----6-8-4----|-4-------|-7-------
D|---2----------|---2----------|---5----------|-----4-6-|-----7-9-
G|--------------|--------------|--------------|---3-----|---6-----
B|--------------|--------------|--------------|---------|---------
E|--------------|--------------|--------------|---------|---------


C D C D C D C D

           C                            D
Open the windows, pull on the brake chords
          C                        D
Open the flood gates, pull up the shades
             C                        D
Turn on your engines with all the vengeance
             C                     D
?Cause I got something I?d like to say
     C               D
I?ve only got a buck in my pocket
        C                    D
But it feels like I own the world
C               D
Only got a buck in my pocket
        C                    D
But it feels like I own the world

    G                             Bb
E|--3----------4-|-3----------4-|-6----------7-|-6----------7-|
A|------3-5-1----|-----3-5-1----|-----6-8-4----|-----6-8-4----|
D|----2----------|---2----------|---5----------|---5----------|
G|---------------|--------------|--------------|--------------|
B|---------------|--------------|--------------|--------------|
E|---------------|--------------|--------------|--------------|

Push your luck...

   C#                       E
E|--------------|---------|---------
A|-4----------5-|-4-------|-7-------
D|-----4-6-2----|-----4-6-|-----7-9-
G|---3----------|---3-----|---6-----
B|--------------|---------|---------
E|--------------|---------|---------

C D C D C D C D

Circle the wagons, seduce the dragons
Tell all the customers they can wait
There?s somethin? oozin? through my delusion
Here?s the conclusion I reached today:
I?ve only got a buck in my pocket
But it feels like I own the world
Only got a buck in my pocket
But it feels like I own the world
Only got a buck in my pocket
But it feels like I own the world
Only got a buck in my pocket
But it feels like I own the world

    G                             Bb
E|--3----------4-|-3----------4-|-6----------7-|-6----------7-|
A|------3-5-1----|-----3-5-1----|-----6-8-4----|-----6-8-4----|
D|----2----------|---2----------|---5----------|---5----------|
G|---------------|--------------|--------------|--------------|
B|---------------|--------------|--------------|--------------|
E|---------------|--------------|--------------|--------------|

Push your luck...

   C#                       E
E|--------------|---------|---------
A|-4----------5-|-4-------|-7-------
D|-----4-6-2----|-----4-6-|-----7-9-
G|---3----------|---3-----|---6-----
B|--------------|---------|---------
E|--------------|---------|---------

C D C D

So warn all the tall clouds, tell ?em to watch out
They?re gonna blow like autumn?s today
Here lies the vestige, some writer?s message
Who kindly asked if I could relay:
I?ve only got a buck in my pocket
But it feels like I own the world
Only got a buck in my pocket
But it feels like I own the world
Only got a buck in my pocket
But it feels like I own the world
Only got a buck in my pocket
But it feels like I own the world

C D C D

Push your luck...
Push your luck...

            
            
Suggest correction
Creating personal tab
Creating personal tab
You can edit any tab online and save it as your Personal.

You can edit, replace or remove any tab part or add personal notes – all changes will be seen only by you.

Personal tabs can be accessed anytime from any device, even offline.
Learn more »
Give kudos to tab author, rate the tab!
1 2 3 4 5
comments
print report bad tab
guest
Wanna post a correction for this tab? Suggest correction