Oops, an error
Loading. Please wait.

Sur O No Sur chords

version 2
version 2

Whole song

162 views 1 this week
no commentswrite comment
1 2 3 4 5
3 more votes to show rating
add to favorites
×
Save as Personal and add changes to this tab that will be seen only by you. Learn more ›
×
You can save this tab as Personal to edit and correct it or add notes. All changes will be seen only by you. Learn more »
launch autoscroll
font size
0
reset
transpose
0
reset
simplify chords
display chords
guitar tuner
edit
Autoscroll
slow
fast
+/-
esc
set tempo
stop
Strumming
There is no strumming pattern for this song yet. and get +5 IQ
(To beast or not to beast, that is the hueso.)

Em B7 B7 Em

(Sarampión Mamá, que esto es contagioso!)

Em                       B7
Me voy porque acá no se puede,
    B7                    Em
me vuelvo porque allá tampoco
Em                       B7
Me voy porque aquí se me debe,
    B7                       Em
me vuelvo porque allá están locos

Em B7        Em
Sur o no sur...
Em B7        Em
Sur o no sur...

Me voy porque aquí no me alcanza,
me vuelvo porque no hay esperanza
Me voy porque aquí se aprovechan,
me vuelvo porque allá me echan

G  D  B7   Am
Sur o no sur...
G  D  B7   Em
Sur o no sur...

        Em        Em         Em
e---------------0---------------------0-
A-2-----------2---------2-----------2---
D----2--------------------2-------------
G-------4-4-4-----4-4-4------4-4-4------
B-------5-5-5-----5-5-5------5-5-5------
E-------3-3-3-----3-3-3------3-3-3------

(Disculpe, la embajada de Italia?)

Em B7 B7 Em

No sé por qué pasa lo que me pasa,
quizás sea la vejez
Quisiera quedarme aquí en mi casa,
pero ya no sé cuál es

Em B7        Em
Sur o no sur...
Em B7        Em
Sur o no sur...

G  D  B7   Am
Sur o no sur...
G  D  B7   Em
Sur o no sur...

e--0---------0--------0--------0--------0--------0--------0-------
A-----6-6-6----5-5-5----4-4-4----5-5-5----6-6-6----5-5-5----4-4-4-
D-----------------------------------------------------------------
G-----------------------------------------------------------------
B-----------------------------------------------------------------
E-----------------------------------------------------------------

Em B7 B7 Em

(A babor!)

Em B7 B7 Em

No sé por qué pasa lo que me pasa, quizás sea mi niñez
Quisiera quedarme aquí en mi casa, pero ya no sé cuál es...
(Me voy para la embajada, me vuelvo por no estar visada
Me voy porque soy de por acá, me vuelvo por ser un sudaca
Malaya, qué triste destino, ser o no ser un Argelino
Malaya, qué triste destino, ser o no ser un marraschino...)

G  D  B7   Am
Sur o no sur...
G  D  B7   Em
Sur o no sur...

                             Em
e--0---------0--------0---------0--
A-----6-6-6----5-5-5----4-4-4---2--
D-------------------------------2--
G-------------------------------0--
B-------------------------------0--
E-------------------------------0--
Suggest correction
Creating personal tab
Creating personal tab
You can edit any tab online and save it as your Personal.

You can edit, replace or remove any tab part or add personal notes – all changes will be seen only by you.

Personal tabs can be accessed anytime from any device, even offline.
Learn more »
Give kudos to tab author, rate the tab!
1 2 3 4 5
comments
print report bad tab
guest
Wanna post a correction for this tab? Suggest correction