Oops, an error
Loading. Please wait.

Blood Lake Tab

1 view 1 this week
no commentswrite comment
1 2 3 4 5
3 more votes to show rating
add to favorites
launch autoscroll
font size
0
reset
how to read this tab
guitar tuner
Autoscroll
slow
fast
+/-
esc
set tempo
stop
Help us to improve Ultimate-Guitar.com Take our survey!
×
Author
[Intro]

e|----------------------------------------------------------------------------|
B|----------------------------------------------------------------------------|
G|----------------------------------------------------------------------------|
D|---2-2-3-2-3-0-0-2-0-2-x4---------------------------------------------------|
A|---------------------------2-2----------------------------------------------|
E|---------------------------0-0----------------------------------------------|


[Riff]

e|----------------------------------------------------------------------------|
B|----------------------------------------------------------------------------|
G|----------------------------------------------------------------------------|
D|-------7---------------------------2---2------------------------------------|
A|---7-7-5-7-5-0-5-0-4-5-4-2-2---2---0---0---0-2-2-3-2-3-0-0-2-0-2------------|
E|---5-5---5-3-0-3-0-2-3-2-0-0-3-0-3-0-3-0-3-0--------------------------------|

e|----------------------------------------------------------------------------|
B|----------------------------------------------------------------------------|
G|----------------------------------------------------------------------------|
D|-------7---------------------------2---2------------------------------------|
A|---7-7-5-7-5-0-5-0-4-5-4-2-2---2---0---0---0-2-2-3-2-3-0-0-2-0-2------------|
E|---5-5---5-3-0-3-0-2-3-2-0-0-3-0-3-0-3-0-3-0--------------------------------|


[Riff]

e|----------------------------------------------------------------------------|
B|----------------------------------------------------------------------------|
G|----------------------------------------------------------------------------|
D|---------------------------------------------------------2---2--------------|
A|---2---2---2---------2---------------------------2---2---0---0--------------|
E|---0-3-0-3-0-0-3-0-0-0-0-0-0-0-5-3-0-5-3-0-5-3-0-0-3-0-3-0-3-0-3------------|


[Riff]

e|----------------------------------------------------------------------------|
B|----------------------------------------------------------------------------|
G|-------------------------------------------------------2--------------------|
D|---------------2---2-----------2-2-3-2---------2-2-3-2---3-2----------------|
A|---2-2-2---2---0---0---2---2-----------3-2----------------------------------|
E|---0-0-0-3-0-3-0-3-0-3-0-3-0-3-------------3-0------------------------------|


[Riff]

e|----------------------------------------------------------------------------|
B|----------------------------------------------------------------------------|
G|----------------------------------------------------------------------------|
D|-----------2---2-----------2---2---2-2-3-2-3-0-0-2-0-2----------------------|
A|---2---2---0---0---2---2---0---0--------------------------------------------|
E|---0-3-0-3-0-3-0-3-0-3-0-3-0-3-0-3------------------------------------------|

  [Riff]
e|----------------------------------------------------------------------------|
B|----------------------------------------------------------------------------|
G|----------------------------------------------------------------------------|
D|----------------------------------------------------------------------------|
A|---2-2----------------------------------------------------------------------|
E|---0-0-0-5-3-0-x4-----------------------------------------------------------|


[Solo]

e|--------------------------------------------------------------------------------|
B|--------------------------------------------------------------------------------|
G|-------5-7-7s9--7-10-9--10-9-12-12s14-12----------12-b14-12-12h14-b14-12-12h14--|
D|---5-7----------------10---------------------12-14------------------------------|
A|----------------------------------------12-14-----------------------------------|
E|--------------------------------------------------------------------------------|

e|--------------------------------------------------------------------------------------|
B|--------------------------------------------------------------------------------------|
G|--14s15-15-14------11-12s14-12-12b14-12-14-16-14-12-11-11h12-11--11-11h12-11--11------|
D|----------------12---------------------------------------------14-----------14--------|
A|--------------14----------------------------------------------------------------------|
E|--------------------------------------------------------------------------------------|

e|---------------------------------19-17b19-17-19s12-12-15-14-12-15-14-12-17-14-15-14-12-|
B|----------------------------19-17------------------------------------------------------|
G|-11-12s14s16-14--14-14s17-19-----------------------------------------------------------|
D|---------------15----------------------------------------------------------------------|
A|---------------------------------------------------------------------------------------|
E|---------------------------------------------------------------------------------------|

e|--0h4h7-x4-0h5h8-x4-0h4h7-x4-0h7h10-x4-0h5h8-x4-0h4h7-x4-0h9h12-x4-0h7h10-x4------|
B|----------------------------------------------------------------------------------|
G|----------------------------------------------------------------------------------|
D|----------------------------------------------------------------------------------|
A|----------------------------------------------------------------------------------|
E|----------------------------------------------------------------------------------|

e|--0h9h12-b12-9h12s14s16-17b17-15-14-12-11-11-12b12-11-12-14-16---|
B|-----------------------------------------------------------------|
G|-----------------------------------------------------------------|
D|-----------------------------------------------------------------|
A|-----------------------------------------------------------------|
E|-----------------------------------------------------------------|


[Riff]

e|----------------------------------------------------------------------------|
B|----------------------------------------------------------------------------|
G|----------------------------------------------------------------------------|
D|-------7-----------------------------------2---2----------------------------|
A|---7-7-5-7-5-0-5-0-4-5-4-2-2---2---2---0-0-0---0---0-2---2------------------|
E|---5-5---5-3-0-3-0-2-3-2-0-0-3-0-3-0-3-0-0-0-3-0-3-0-0-3-0-3-5-5-3-3-2-0----|


[Riff]

e|----------------------------------------------------------------------------|
B|----------------------------------------------------------------------------|
G|----------------------------------------------------------------------------|
D|-------------------------------------------------2---2----------------------|
A|---2-2-------5-4-5-5-0-2---2---5-5-4-5-2-2---2---0---0----------------------|
E|---0-0-5-3-0-3-2-3-3-0-0-3-0-3-3-3-2-3-0-0-3-0-3-0-3-0-3--------------------|


[Riff]

e|----------------------------------------------------------------------------|
B|----------------------------------------------------------------------------|
G|----------------------------------------------------------------------------|
D|----------------------------------------------------------------------------|
A|---------------2-2-2-2-2-2--------------------------------------------------|
E|---5-5-5-3-3-2-0-0-0-0-0-0--------------------------------------------------|


[Riff]

e|----------------------------------------------------------------------------|
B|----------------------------------------------------------------------------|
G|----------------------------------------------------------------------------|
D|-------7---------------------------2---2------------------------------------|
A|---7-7-5-7-5-0-5-0-4-5-4-2-2---2---0---0---0-2-2-3-2-3-0-0-2-0-2------------|
E|---5-5---5-3-0-3-0-2-3-2-0-0-3-0-3-0-3-0-3-0--------------------------------|

e|----------------------------------------------------------------------------|
B|----------------------------------------------------------------------------|
G|----------------------------------------------------------------------------|
D|-------7---------------------------2---2------------------------------------|
A|---7-7-5-7-5-0-5-0-4-5-4-2-2---2---0---0---0-2-2-3-2-3-0-0-2-0-2------------|
E|---5-5---5-3-0-3-0-2-3-2-0-0-3-0-3-0-3-0-3-0--------------------------------|



************************************

| x  Dead note
| h  Hammer-on
| b  Bend
| s  slide

************************************
Suggest correction
Give kudos to tab author, rate the tab!
1 2 3 4 5
comments
print report bad tab
guest
You may want to rate the tab now too:
select rating
Wanna post a correction for this tab? Suggest correction