Oops, an error
Loading. Please wait.

Chosen One Im The Chosen One tab

16 views 1 this week
no commentswrite comment
1 2 3 4 5
3 more votes to show rating
add to favorites
×
Save as Personal and add changes to this tab that will be seen only by you. Learn more ›
×
You can save this tab as Personal to edit and correct it or add notes. All changes will be seen only by you. Learn more »
launch autoscroll
font size
0
reset
how to read this tab
guitar tuner
edit
Autoscroll
slow
fast
+/-
esc
set tempo
stop
Author
Riff 1 (Play 2) chug as 000-000-000 fast)
             0) 

 e|----------------------------------------------------------------------------|
 B|----------------------------------------------------------------------------|
 G|----------------------------------------------------------------------------|
 D|----------------------------------------------------------------------------|
 A|--2)s-10-9-2)s-15-14-2)s-15-12-2)-12-10-9-7---------------------------------|
 E|--0)-------0)--------0)--------0)-------------------------------------------|

Riff 2 (Play 2) chug as 000-000-000 fast)
             0) 

 e|----------------------------------------------------------------------------|
 B|----------------------------------------------------------------------------|
 G|----------------------------------------------------------------------------|
 D|----------------------------------------------------------------------------|
 A|--2)-9-7-2)-7-5-2)-5-4-2)-7-5-4-2-------------------------------------------|
 E|--0)-7-5-0)-5-3-0)-3-2-0)-5-3-2-0-------------------------------------------|

Riff 3 (Play 2) chug as 000-000-000 fast)
             0) 

 e|----------------------------------------------------------------------------|
 B|----------------------------------------------------------------------------|
 G|----------------------------------------------------------------------------|
 D|----------------------------------------------------------------------------|
 A|--2)---------2)---------2)-----------------2-2------------------------------|
 E|--0)-7-9-7-9-0)-5-7-5-7-0)-3-5-3-5-2-3-2-3-0-0------------------------------|

Riff 4
 
 e|----------------------------------------------------------------------------|
 B|----------------------------------------------------------------------------|
 G|----------------------------------------------------------------------------|
 D|----------------------------------------------------------------------------|
 A|-2-2------------------------------------------------------------------------|
 E|-0-0-2-3-2-3----------------------------------------------------------------|x4 fast

 e|----------------------------------------------------------------------------|
 B|----------------------------------------------------------------------------|
 G|----------------------------------------------------------------------------|
 D|----------------------------------------------------------------------------|
 A|-2-2-------------2----------------------------------------------------------|
 E|-0-0-2-3-2-3-5-3-0----------------------------------------------------------|

Riff 5

 e|----------------------------------------------------------------------------|
 B|----------------------------------------------------------------------------|
 G|----------------------------------------------------------------------------|
 D|----------------------------------------------------------------------------|
 A|---9-9-7-9-7-9-5-5----------------------------------------------------------|
 E|---7-7-5-7-5-7-3-3----------------------------------------------------------|x2

 e|----------------------------------------------------------------------------|
 B|----------------------------------------------------------------------------|
 G|----------------------------------------------------------------------------|
 D|----------------------------------------------------------------------------|
 A|-2-2------------------------------------------------------------------------|
 E|-0-0-2-3-2-3----------------------------------------------------------------|x4 fast

Riff 6

 e|----------------------------------------------------------------------------|
 B|----------------------------------------------------------------------------|
 G|----------------------------------------------------------------------------|
 D|----------------------------------------------------------------------------|
 A|-2-2-10-9-2-2-15-14-2-2-15-12-----------------------------------------------|
 E|-0-0------0-0-------0-0-----------------------------------------------------|

 e|----------------------------------------------------------------------------|
 B|----------------------------------------------------------------------------|
 G|----------------------------------------------------------------------------|
 D|----------------------------------------------------------------------------|
 A|-2-2------------------------------------------------------------------------|
 E|-0-0-2-3-2-3----------------------------------------------------------------|x4 fast


Solo (hbfb17 is a half bend continued into a full bend)
 
 e|----------------------------------------------------------------------------|
 B|----------------------------------------------------------------------------|
 G|----------------------------------------------------------------------------|
 D|------15-17-hb17-15h17p15--------15-17-hbfb17-15h17p15----------------------|
 A|-15-17-------------------17--1517-------------------------------------------|
 E|----------------------------------------------------------------------------|

 e|----------------------------------------------------------------------------|
 B|----------------------------------------------------------------------------|
 G|----------------------------------------------------------------------------|
 D|------15-17s19-19-17-b19-17h19p17--19-17-15-14-14h15p14-12------------------|
 A|-15-17---------------------------19-----------------------------------------|
 E|----------------------------------------------------------------------------|

 e|---------------------------------------------------------------------------|
 B|---------------------------------------------------------------------------|
 G|---------------------------------7-9s10-db10-9-9h10p9-7--------------------|
 D|-10-9--15-14--15-12-12-10-9-7-7-9------------------------------------------|
 A|------2-----2--------------------------------------------------------------|
 E|------0-----0--------------------------------------------------------------|

 e|-----------------------------------------------------------------------------|
 B|-----------------------------------------------------------------------------|
 G|-7-9s10s12s14-15-14h15s18-15s19-b19-18-b19-18-15-18-15-14-10-9-2s12-14-15-14-|
 D|-----------------------------------------------------------------------------|
 A|-----------------------------------------------------------------------------|
 E|-----------------------------------------------------------------------------|

 e|-------------------------------------------------------------------------|
 B|-------------------------------------------------------------------------|
 G|--15-14-12h14h15p14------------------------------------------------------|
 D|--------------------15-14-15-12----14h15p14----15h17p15----17h19p17------|
 A|--------------------------------2-2---------2-2---------2-2--------------|
 E|--------------------------------0-0---------0-0---------0-0--------------|

 e|----------------------------------------------------------------------------|
 B|----------------------------------------------------------------------------|
 G|----------------------------------------------------------------------------|
 D|-b19-17-17-15-14-12---------------------------------------------------------|
 A|----------------------------------------------------------------------------|
 E|----------------------------------------------------------------------------|
 
 e|----------------------------------------------------------------------------|
 B|----------------------------------------------------------------------------|
 G|----------------------------------------------------------------------------|
 D|----------------------------------------------------------------------------|
 A|-2-2------------------------------------------------------------------------|
 E|-0-0-2-3-2-3----------------------------------------------------------------|x4 fast

 e|----------------------------------------------------------------------------|
 B|----------------------------------------------------------------------------|
 G|----------------------------------------------------------------------------|
 D|-15-14-17-15-19-17-21-19-b21-19--------19-17-16h17p16-----------------------|
 A|-------------------------------21-19-17--------------17-16------------------|
 E|----------------------------------------------------------17-16-14----------|

End of solo

 
Ending
 e|----------------------------------------------------------------------------|
 B|----------------------------------------------------------------------------|
 G|----------------------------------------------------------------------------|
 D|----------------------------------------------------------------------------|
 A|-2-2------------------------------------------------------------------------|
 E|-0-0-2-3-2-3----------------------------------------------------------------|x4 fast

 (Play 2) chug as 000-000-000 fast)
       0) 

 e|----------------------------------------------------------------------------|
 B|----------------------------------------------------------------------------|
 G|----------------------------------------------------------------------------|
 D|----------------------------------------------------------------------------|
 A|--2)s-10-9-2)s-15-14-2)s-15-12-2)-12-10-9-7---------------------------------|
 E|--0)-------0)--------0)--------0)-------------------------------------------|

 e|----------------------------------------------------------------------------|
 B|----------------------------------------------------------------------------|
 G|----------------------------------------------------------------------------|
 D|----------------------------------------------------------------------------|
 A|-2-2------------------------------------------------------------------------|
 E|-0-0-2-3-2-3----------------------------------------------------------------|x4 fast

 e|----------------------------------------------------------------------------|
 B|----------------------------------------------------------------------------|
 G|----------------------------------------------------------------------------|
 D|----------------------------------------------------------------------------|
 A|--2)---------2)---------2)-----------------2-2------------------------------|
 E|--0)-7-9-7-9-0)-5-7-5-7-0)-3-5-3-5-2-3-2-3-0-0------------------------------|x4


 e|----------------------------------------------------------------------------|
 B|----------------------------------------------------------------------------|
 G|----------------------------------------------------------------------------|
 D|----------------------------------------------------------------------------|
 A|-2-2-------------------2----------------------------------------------------|
 E|-0-0-2-3-2-3-5-3-2-3-2-0----------------------------------------------------|


Legend

hb-Half bend
fb-Full bend
hbfb-Half bend continued into full bend
s-Slide
h-hammer on
p-pull off
b-Bend
Suggest correction
Creating personal tab
Creating personal tab
You can edit any tab online and save it as your Personal.

You can edit, replace or remove any tab part or add personal notes – all changes will be seen only by you.

Personal tabs can be accessed anytime from any device, even offline.
Learn more »
Give kudos to tab author, rate the tab!
1 2 3 4 5
comments
print report bad tab
guest
You may want to rate the tab now too:
select rating
Wanna post a correction for this tab? Suggest correction