Oops, an error
Loading. Please wait.

Human Disection Tab

1 view 1 this week
no commentswrite comment
1 2 3 4 5
3 more votes to show rating
add to favorites
launch autoscroll
font size
0
reset
how to read this tab
guitar tuner
Autoscroll
slow
fast
+/-
esc
set tempo
stop
Help us to improve Ultimate-Guitar.com Take our survey!
×
Author
[Intro]

e|----------------------------------------------------------------------------|
B|----------------------------------------------------------------------------|
G|----------------------------------------------------------------------------|
D|-------2-1-0-2-3-2---2-----2-1-0-2-3-2---2-----2-1-0-2-3-2---2--------------|
A|-----2-------------3-----2-------------3-----2-------------3----------------|
E|---0-------------------0-------------------0--------------------------------|

e|----------------------------------------------------------------------------|
B|----------------------------------------------------------------------------|
G|----------------------------------------------------------------------------|
D|-------2-1-0-2-3-2---2-2-3-2---2-2-3-2---2-3-2------------------------------|
A|-----2-------------3---------3---------3-------3-2--------------------------|
E|---0-----------------------------------------------3-2-1-0------------------|


[Verse]

e|----------------------------------------------------------------------------|
B|----------------------------------------------------------------------------|
G|----------------------------------------------------------------------------|
D|----------------------------------------------------------------------------|
A|----------------------------------------------------------------------------|
E|---0-0-0-b1-0-0---0-0-0-b1-0-0---0-0-0-b1-0-b1-0-b1-0-b1-0-0----------------|

e|----------------------------------------------------------------------------|
B|----------------------------------------------------------------------------|
G|----------------------------------------------------------------------------|
D|----------------------------------------------------------------------------|
A|----------------------------------------------------------------------------|
E|---0-0-0-b1-0-0---0-0-0-b1-0-0---0-0-0-b1-0-b1-0-b1-0-b1-0-0----------------|

e|----------------------------------------------------------------------------|
B|----------------------------------------------------------------------------|
G|----------------------------------------------------------------------------|
D|----------------------------------------------------------------------------|
A|---------7-8-9--------------------------------------------------------------|
E|---0-0-0-5-6-7--------------------------------------------------------------|

e|----------------------------------------------------------------------------|
B|----------------------------------------------------------------------------|
G|----------------------------------------------------------------------------|
D|----------------------------------------------------------------------------|
A|----------------------------------------------------------------------------|
E|---0-0-0-b1-0-0---0-0-0-b1-0-0---0-0-0-b1-0-b1-0-b1-0-b1-0-0----------------|

e|----------------------------------------------------------------------------|
B|----------------------------------------------------------------------------|
G|----------------------------------------------------------------------------|
D|----------------------------------------------------------------------------|
A|---------5-4-2--------------------------------------------------------------|
E|---0-0-0-3-2-0--------------------------------------------------------------|

e|----------------------------------------------------------------------------|
B|----------------------------------------------------------------------------|
G|----------------------------------------------------------------------------|
D|----------------------------------------------------------------------------|
A|---5-5-2-3-2----------------------------------------------------------------|
E|---3-3-0-1-0----------------------------------------------------------------|

e|----------------------------------------------------------------------------|
B|----------------------------------------------------------------------------|
G|----------------------------------------------------------------------------|
D|----------------------------------------------------------------------------|
A|---------(-0-4-0-5-0-7-0-4-0-5-0-7-0-8-0-5-0--------------------------------|
E|---0-0-0-(-0-4-0-5-0-7-0-4-0-5-0-7-0-8-0-5-0-x4-----------------------------|

e|----------------------------------------------------------------------------|
B|----------------------------------------------------------------------------|
G|----------------------------------------------------------------------------|
D|----------------------------------------------------------------------------|
A|-------------2--------------------------------------------------------------|
E|---4-5-4-1-0-0--------------------------------------------------------------|

e|----------------------------------------------------------------------------|
B|----------------------------------------------------------------------------|
G|----------------------------------------------------------------------------|
D|----------------------------------------------------------------------------|
A|----------------------------------------------------------------------------|
E|---0-0-0-b1-0-0---0-0-0-b1-0-0---0-0-0-b1-0-b1-0-b1-0-b1-0-0----------------|

e|----------------------------------------------------------------------------|
B|----------------------------------------------------------------------------|
G|----------------------------------------------------------------------------|
D|----------------------------------------------------------------------------|
A|----------------------------------------------------------------------------|
E|---0-0-0-b1-0-0---0-0-0-b1-0-0---0-0-0-b1-0-b1-0-b1-0-b1-0-0----------------|

e|----------------------------------------------------------------------------|
B|----------------------------------------------------------------------------|
G|----------------------------------------------------------------------------|
D|----------------------------------------------------------------------------|
A|---------(-2-2-2-2-5-2-2-2-2-7-2-2-2-2-5-3-2--------------------------------|
E|---0-0-0-(-0-0-0-0-3-0-0-0-0-5-0-0-0-0-3-1-0-x4-----------------------------|

e|----------------------------------------------------------------------------|
B|----------------------------------------------------------------------------|
G|----------------------------------------------------------------------------|
D|----------------------------------------------------------------------------|
A|----------------------------------------------------------------------------|
E|---0-0-0-b1-0-0---0-0-0-b1-0-0---0-0-0-b1-0-b1-0-b1-0-b1-0-0----------------|

e|----------------------------------------------------------------------------|
B|----------------------------------------------------------------------------|
G|----------------------------------------------------------------------------|
D|----------------------------------------------------------------------------|
A|----------------------------------------------------------------------------|
E|---0-0-0-b1-0-0---0-0-0-b1-0-0---0-0-0-b1-0-b1-0-b1-0-b1-0-0----------------|

e|----------------------------------------------------------------------------|
B|----------------------------------------------------------------------------|
G|----------------------------------------------------------------------------|
D|-------5-6-5-----5-6-5-----5-6-5-5-8-5-5-6-5-3-5-3--------------------------|
A|-----5---------5---------5-------------------------5-3----------------------|
E|---5---------5---------5-------------------------------5-3------------------|

e|----------------------------------------------------------------------------|
B|----------------------------------------------------------------------------|
G|----------------------------------------------------------------------------|
D|----------------------------------------------------------------------------|
A|----------------------------------------------------------------------------|
E|---0-0-0-b1-0-0---0-0-0-b1-0-0---0-0-0-b1-0-b1-0-b1-0-b1-0-0----------------|

e|----------------------------------------------------------------------------|
B|----------------------------------------------------------------------------|
G|----------------------------------------------------------------------------|
D|----------------------------------------------------------------------------|
A|----------------------------------------------------------------------------|
E|---0-0-0-b1-0-0---0-0-0-b1-0-0---0-0-0-b1-0-b1-0-b1-0-b1-0-0----------------|

e|----------------------------------------------------------------------------|
B|----------------------------------------------------------------------------|
G|----------------------------------------------------------------------------|
D|----------------------------------------------------------------------------|
A|---5-5-5-5-2-2-2-2-3-3-3-3-2-2-2-2------------------------------------------|
E|---3-3-3-3-0-0-0-0-1-1-1-1-0-0-0-0-x3---------------------------------------|

e|----------------------------------------------------------------------------|
B|----------------------------------------------------------------------------|
G|----------------------------------------------------------------------------|
D|-------5-6-5-----5-6-5-----5-6-5-5-8-5-5-6-5-3-5-3--------------------------|
A|-----5---------5---------5-------------------------5-3----------------------|
E|---5---------5---------5-------------------------------5-3------------------|

e|----------------------------------------------------------------------------|
B|----------------------------------------------------------------------------|
G|----------------------------------------------------------------------------|
D|----------------------------------------------------------------------------|
A|----------------------------------------------------------------------------|
E|---0-0-0-b1-0-0---0-0-0-b1-0-0---0-0-0-b1-0-b1-0-b1-0-b1-0-0----------------|


[Solo]

e|-----------------------------------------------------------------------|
B|-----------------------------------------------------------------------|
G|-----------7b9---7-9-10-9-10-12-12-s14-b14-15-14-----------------------|
D|-------7-9--------------------------------------15-14------------------|
A|---7-9-----------------------------------------------15-14-------------|
E|----------------------------------------------------------15-14--12----|

e|------------------------------------------------12-15----------------------------------------|
B|-------------------------------------12-14-15-14-----15-12-----------------------------------|
G|-----------------------12-14-15-14-12---------------------12h14p12---------------------------|
D|---------------12-14-15-------------------------------------------14-12----------------------|
A|-------12-14-15--------------------------------------------------------12-14-15-14-12--------|
E|--12-14------------------------------------------------------------------------------14-12---|

e|-------------------------------------------------------------------|
B|-------------------------------------------------------------------|
G|-------------------12-14-15s17s19b19-17----------------------------|
D|----------12b14-b14--------------------19-17-----------------------|
A|-------12-----------------------------------19-17------------------|
E|--12-14------------------------------------------19-17-b17-15-12---|

e|------------------------------17b19-17-19-17-15------------------|
B|-------------------------17-19-----------------17-15-------------|
G|--------------------17b19---------------------------17-----------|
D|---------------17b19----------------------------------15---------|
A|----------17-19-----------------------------------------17-------|
E|--12s17-19------------------------------------------------15s7---|

e|---------------------------------------------------------------------------------|
B|---------------------------------------------------------------------------------|
G|----------------------------------------------------------------14-15-17-15-14---|
D|---------7b9-5-5-7-5---5-7-5---5-7-5-------7-9-10-9-----12-14-15-----------------|
A|-----7-9-------------7-------9-------0-7s9---------12-14-------------------------|
E|---9-----------------------------------------------------------------------------|

e|---------------15b17-15------------------------------------------------------|
B|----------15-17--------17-15--------------------------------------------------|
G|--14-15s17-----------------17-15-14-15-17-19b19-17-15-14-14-15-14--14-14-15-14--14-12---|
D|-----------------------------------------------------------------15-----------17--------|
A|----------------------------------------------------------------------------------------|
E|----------------------------------------------------------------------------------------|

e|----------------------------------------------------------------------------|
B|----------------------------------------------------------------------------|
G|--b12-10-9-7-5-3-2----------------------------------------------------------|
D|-------------------3-2------------------------------------------------------|
A|-----------------------3-2--------------------------------------------------|
E|---------------------------3-0----------------------------------------------|

e|--------------------------------------12-14-15-15-14-12-10-9-7-5-3-2-0-0---|
B|------------------------------12-14-15-------------------------------------|
G|-------------------------12-14---------------------------------------------|
D|-----------------12-14-15--------------------------------------------------|
A|---------12-14-15----------------------------------------------------------|
E|--3s12-14------------------------------------------------------------------|


[Outro]

e|----------------------------------------------------------------------------|
B|----------------------------------------------------------------------------|
G|----------------------------------------------------------------------------|
D|----------------------------------------------------------------------------|
A|----------------------------------------------------------------------------|
E|---0-0-0-b1-0-0---0-0-0-b1-0-0---0-0-0-b1-0-b1-0-b1-0-b1-0-0----------------|

e|----------------------------------------------------------------------------|
B|----------------------------------------------------------------------------|
G|----------------------------------------------------------------------------|
D|----------------------------------------------------------------------------|
A|----------------------------------------------------------------------------|
E|---0-0-0-b1-0-0---0-0-0-b1-0-0---0-0-0-b1-0-b1-0-b1-0-b1-0-0----------------|

e|----------------------------------------------------------------------------|
B|----------------------------------------------------------------------------|
G|----------------------------------------------------------------------------|
D|----------------------------------------------------------------------------|
A|---5-5-2-3-2----------------------------------------------------------------|
E|---3-3-0-1-0----------------------------------------------------------------|

e|----------------------------------------------------------------------------|
B|----------------------------------------------------------------------------|
G|----------------------------------------------------------------------------|
D|----------------------------------------------------------------------------|
A|---5-2-3-2------------------------------------------------------------------|
E|---3-0-1-0x8----------------------------------------------------------------|

e|----------------------------------------------------------------------------|
B|----------------------------------------------------------------------------|
G|----------------------------------------------------------------------------|
D|----------------------------------------------------------------------------|
A|----------------------------------------------------------------------------|
E|---0-0-0-b1-0-0---0-0-0-b1-0-0---0-0-0-b1-0-b1-0-b1-0-b1-0-0----------------|

e|----------------------------------------------------------------------------|
B|----------------------------------------------------------------------------|
G|----------------------------------------------------------------------------|
D|----------------------------------------------------------------------------|
A|-----------------2-2--------------------------------------------------------|
E|---0-0-0-3-1-3-1-0-0--------------------------------------------------------|

e|----------------------------------------------------------------------------|
B|----------------------------------------------------------------------------|
G|----------------------------------------------------------------------------|
D|----------------------------------------------------------------------------|
A|---------(-2-2-2-2-5-2-2-2-2-7-2-2-2-2-5-3-2--------------------------------|
E|---0-0-0-(-0-0-0-0-3-0-0-0-0-5-0-0-0-0-3-1-0-x4-----------------------------|

e|----------------------------------------------------------------------------|
B|----------------------------------------------------------------------------|
G|----------------------------------------------------------------------------|
D|----------------------------------------------------------------------------|
A|---------(-0-4-0-5-0-7-0-4-0-5-0-7-0-8-0-5-0--------------------------------|
E|---0-0-0-(-0-4-0-5-0-7-0-4-0-5-0-7-0-8-0-5-0-x4-----------------------------|

e|----------------------------------------------------------------------------|
B|----------------------------------------------------------------------------|
G|----------------------------------------------------------------------------|
D|----------------------------------------------------------------------------|
A|---5-5-2-3-2----------------------------------------------------------------|
E|---3-3-0-1-0----------------------------------------------------------------|



************************************

| b  Bend
| x  Dead note
| h  Hammer-on
| p  Pull-off
| s  slide

************************************
Suggest correction
Give kudos to tab author, rate the tab!
1 2 3 4 5
comments
print report bad tab
guest
You may want to rate the tab now too:
select rating
Wanna post a correction for this tab? Suggest correction