Oops, an error
Loading. Please wait.

1981 Chords

404 views 1 this week
no commentswrite comment
1 2 3 4 5
2 more votes to show rating
add to favorites
launch autoscroll
font size
0
reset
transpose
0
reset
display chords
guitar tuner
Autoscroll
slow
fast
+/-
esc
set tempo
stop
Help us to improve Ultimate-Guitar.com Take our survey!
×
Author
Difficulty
novice
-------------------------------------------------------------------------------
                                                Kevin Seconds - 1981
-------------------------------------------------------------------------------
Tabbed by: rob
Email: brainwashed_monkey@hotmail.com

http://www.kevinseconds.com/

Tuning:EADGBe

chords used
     
     Bb      F#       F       G#      D#      F*       C#
e|-------|--------|-------|-------|-------|--------|-------|
B|-------|--------|-------|-------|-------|--------|-------|
G|-------|--------|-------|-------|---8---|---10---|---6---|
D|---8---|---4----|---3---|---6---|---8---|---10---|---6---|
A|---8---|---4----|---3---|---6---|---6---|---8----|---4---|
E|---6---|---2----|---1---|---4---|-------|--------|-------|


Bb
I found another letter
Bb
This one was not much better
F#
From a girl so long agaon
F                G#
A girl I used to know in Reno
Bb
Yea things they kinda happened
Bb
But I flunked her test or something
F#
Punk rock cured my misery
F                  G#
She said it ruined her and me


D#
Back in the day
             G#              Bb
We played in nineteen eighty one
D#
What's done is done
             G#              Bb       F*
I thought in nineteen eighty one 


Bb
I should explain the chorus
Bb
There was no future for us
    F#
She made life feel ok
F            G# 
We hung out every day
Bb
Then things got kinda creepy

She started getting weepy
F#
Our things grew really odd
F          G#
As soon as she found God

D#   Bb   F#   C#
D#   Bb   F#   G#
D#   Bb   F#   C#
D#   Bb   F*


Bb
She moved to Sacramento
Bb
Gave back all my mementos
F#
Stood there and watched her go
F              G#
Stayed with my band in Skeeno
Bb
We tried to keep things friendly
Bb
So hard when things have ended
F#
Punk rock blamed for our decline
F                  G#
she said it ruined her and mine



eighty-four
===============================================================================
Suggest correction
Give kudos to tab author, rate the tab!
1 2 3 4 5
comments
print report bad tab
guest
You may want to rate the tab now too:
select rating
Wanna post a correction for this tab? Suggest correction