Oops, an error
Loading. Please wait.

Damned Bass Tab

version 1
version 1

Whole song

Interactive

501 views 1 this week
no commentswrite comment
1 2 3 4 5
please rate
add to favorites
launch autoscroll
font size
0
reset
guitar tuner
Autoscroll
slow
fast
+/-
esc
set tempo
stop
Help us to improve Ultimate-Guitar.com Take our survey!
×
Author
Difficulty
novice
Kevin Sherwood – Damned (Black Ops Zombies)
Tabbed by James Muttley
Have Fun!

G----------------------------------------------------7-----------------|
D-9-----9-----9---9-----9-----9---10-----10-----10---------10-----10---|
A---7-----7-----7---7-----7-----7----7------7------7---7------7------7-| x2
E-----7-----7---------7-----7----------8------8----------8------8------|

G-9-----9-----9--------------------------------------7-----------------|
D-----------------9-----9-----9---10-----10-----10---------10-----10---|
A---7-----7-----7---7-----7-----7----7------7------7---7------7------7-|
E-----7-----7---------7-----7----------8------8----------8------8------|

G-9-----9-----9---------------------------------------------------|
D-----------------9-----9-----9---7-----7-----7---5-----5-----5---|
A---7-----7-----7---7-----7-----7---7-----7-----7---7-----7-----7-|
E-----7-----7---------7-----7---------8-----8---------8-----8-----|


G------------------------------------------------------------------------------|
D-11-9-10-------10-------10----10-------10-------10----11-------11-------11----|
A---------12-------12-------12----12-------12-------12----12-------12-------12-|
E------------12-------12-------------12-------12-------------12-------12-------|


G-11-------9-------|
D------------------|
A----12------12----|
E-------12------12-|


G---------------------------------------------------------------------------------|
D-11-9-10-------10-------10----10-------10-------10----10-------10-------10-------|
A---------12-------12-------12----12-------12-------12----12-------12-------12----|
E------------12-------12-------------11-------11-------------10-------10-------11-|


G----------------------------------------------------------------|
D-10-------10-------10-------10-------10-------10-------10-------|
A----12-------12-------12-------12-------12-------12-------12----|
E-------11-------10-------10-------10-------11-------11-------10-|


G---------------------------------|
D-10------11------10------11------|  REPEAT EVERYTHING!
A----12-9----12-9----12-9----12-9-|
E---------------------------------|
Suggest correction
Give kudos to tab author, rate the tab!
1 2 3 4 5
comments
print report bad tab
guest
You may want to rate the tab now too:
select rating
Wanna post a correction for this tab? Suggest correction