Oops, an error
Loading. Please wait.

Coming Home Tab

version 2
version 2

Whole song

  • This is the tab for Kevin Sherwood's Coming Home, ... Show more
25 views 1 this week
no commentswrite comment
1 2 3 4 5
3 more votes to show rating
add to favorites
launch autoscroll
font size
0
reset
how to read this tab
guitar tuner
Autoscroll
slow
fast
+/-
esc
set tempo
stop
Help us to improve Ultimate-Guitar.com Take our survey!
×
Author
Difficulty
Tuning
advanced
D G C F A D
About this tab version
This is the tab for Kevin Sherwood's Coming Home, a song mainly known as the Call of Duty: Black Ops Zombies easter egg song for the Zombies map "Moon". Like all of Kevin's songs, they are made to be played on an 8 string guitar. The creator of this tab has a YouTube channel called Jonny Hudson and did a cover of Coming Home with an 8 string guitar so check it out if you need visual aid with the tab. The link to his channel is (https://www.youtube.com/channel/UCZIOxU8t8DGVsKitoWRWIFQ) and the link to the Coming Home cover is ( https://www.youtube.com/watch?v=S44RxF-IaS0 ). Be sure to listen to the covers with headphones on. Was this info helpful? Yes No
[Intro]
   1 e & a 2 e & a 3 e & a 4 e & a  1 e & a 2 e & a 3 e & a 4 e & a 
D |--------------------------------|--------------------------------|
A |--------------------------------|--------------------------------|
F |--------------------------------|--------------------------------|
C |--------------------------------|--------------------------------|
G |--------------------------------|--------------------------------|
D |--------------------------------|--------------------------------|
A |--------------------------------|--------------------------------|
C#|1p0---0-0---0h12--0-0---0-7---0-|5~~~0-3---5---0-8-5-0-5---8---0-|

   1 e & a 2 e & a 3 e & a 4 e & a  1 e & a 2 e & a 3 e & a 4 e & a 
D |--------------------------------|--------------------------------|
A |--------------------------------|--------------------------------|
F |--------------------------------|--------------------------------|
C |--------------------------------|--------------------------------|
G |--------------------------------|--------------------------------|
D |--------------------------------|--------------------------------|
A |--------------------------------|--------------------------------|
C#|5h7-8-7---5\4-0-12--0-0---12--0-|13--0-0---13--0-10--0-0---10--0-| x2

   1 e & a 2 e & a 3 e & a 4 e & a  1 e & a 2 e & a 3 e & a 4 e & a 
D |--------------------------------|--------------------------------|
A |--------------------------------|--------------------------------|
F |--------------------------------|--------------------------------|
C |--------------------------------|--------------------------------|
G |--------------------------------|--------------------------------|
D |--------------------------------|--------------------------------|
A |--------------------------------|--------------------------------|
C#|0---0---0---0-0---0---0---0-0---|0---0---0---0-0---0---0---0-0---| x4
   PM....................    ............................    ......

[Verse 1]
   1 e & a 2 e & a 3 e & a 4 e & a
D |--------------------------------|
A |--------------------------------|
F |--------------------------------|
C |--------------------------------|
G |--------------------------------|
D |--------------------------------|
A |--------------------------------|
C#|1p0---0-0---0h12--0-0-----------|

   1 e & a 2 e & a 3 e & a 4 e & a  1 e & a 2 e & a 3 e & a 4 e & a 
D |--------------------------------|--------------------------------|
A |--------------------------------|--------------------------------|
F |--------------------------------|--------------------------------|
C |--------------------------------|--------------------------------|
G |--------------------------------|--------------------------------|
D |--------------------------------|--------------------------------|
A |--------------------------------|--------------------------------|
C#|1p0---0-0---0h12--0-0---0-7---0-|5~~~0-3---5---0-8-5-0-5---8---0-|

   1 e & a 2 e & a 3 e & a 4 e & a  1 e & a 2 e & a 3 e & a 4 e & a 
D |--------------------------------|--------------------------------|
A |--------------------------------|--------------------------------|
F |--------------------------------|--------------------------------|
C |--------------------------------|--------------------------------|
G |--------------------------------|--------------------------------|
D |--------------------------------|--------------------------------|
A |--------------------------------|--------------------------------|
C#|5h7-8-7---5\4-0-12--0-0---12--0-|13--0-0---13--0-10--0-0---10--0-| x2

   1 e & a 2 e & a 3 e & a 4 e & a  1 e & a 2 e & a 3 e & a 4 e & a 
D |--------------------------------|--------------------------------|
A |--------------------------------|--------------------------------|
F |--------------------------------|--------------------------------|
C |--------------------------------|--------------------------------|
G |--------------------------------|--------------------------------|
D |--------------------------------|--------------------------------|
A |--------------------------------|--------------------------------|
C#|0---0---0---0-0---0---0---0-0---|0---0---0---0-0---0---0---0-0---| x2
   PM....................    ............................    ......

[Pre-Chorus 1]
   
   1 e & a 2 e & a 3 e & a 4 e & a  1 e & a 2 e & a 3 e & a 4 e & a 
D |--------------------------------|--------------------------------|
A |--8---8---8---8---8---8---8---8-|--9---9---9---9---9---9---9---9-|
F |9---9---9---9---9---9---9---9---|9---9---9---9---9---9---9---9---|
C |--------------------------------|--------------------------------|
G |--------------------------------|--------------------------------|
D |--------------------------------|--------------------------------|
A |--------------------------------|--------------------------------|
C#|--------------------------------|--------------------------------|

[Chorus 1]
   1 e & a 2 e & a 3 e & a 4 e & a  1 e & a 2 e & a 3 e & a 4 e & a 
D |--------------------------------|--------------------------------|
A |--------------------------------|--------------------------------|
F |--------------------------------|--------------------------------|
C |--------------------------------|--------------------------------|
G |--------------------------------|--------------------------------|
D |7------(7)\\3---------------3---|5------(5)--5------(5)----------|
A |5------(5)\\1---------------1---|3-------3--(3)------3-----------|
C#|--------------------------------|--------------------------------|
  
   1 e & a 2 e & a 3 e & a 4 e & a  1 e & a 2 e & a 3 e & a 4 e & a 
D |--------------------------------|--------------------------------|
A |--------------------------------|--------------------------------|
F |--------------------------------|--------------------------------|
C |--------------------------------|--------------------------------|
G |--------------------------------|--------------------------------|
D |------------7-7-7-7-7-7-7-7-7-7-|------------8-8-8-8-8-8-8-8-8-8-|
A |5-5-5-5-------------------------|--------------------------------|
C#|--------------------------------|6-6-6-6-------------------------| x2
   PM......                        PM......

[Verse 2]
   1 e & a 2 e & a 3 e & a 4 e & a  1 e & a 2 e & a 3 e & a 4 e & a 
D |--------------------------------|--------------------------------|
A |--------------------------------|--------------------------------|
F |--------------------------------|--------------------------------|
C |--------------------------------|--------------------------------|
G |--------------------------------|--------------------------------|
D |--------------------------------|--------------------------------|
A |--------------------------------|--------------------------------|
C#|1p0---0-0---0h12--0-0---0-7---0-|5~~~0-3---5---0-8-5-0-5---8---0-|

   1 e & a 2 e & a 3 e & a 4 e & a  1 e & a 2 e & a 3 e & a 4 e & a 
D |--------------------------------|--------------------------------|
A |--------------------------------|--------------------------------|
F |--------------------------------|--------------------------------|
C |--------------------------------|--------------------------------|
G |--------------------------------|--------------------------------|
D |--------------------------------|--------------------------------|
A |--------------------------------|--------------------------------|
C#|5h7-8-7---5\4-0-12--0-0---12--0-|13--0-0---13--0-10--0-0---10--0-|

   1 e & a 2 e & a 3 e & a 4 e & a  1 e & a 2 e & a 3 e & a 4 e & a 
D |--------------------------------|--------------------------------|
A |--------------------------------|--------------------------------|
F |--------------------------------|--------------------------------|
C |--------------------------------|--------------------------------|
G |--------------------------------|--------------------------------|
D |--------------------------------|--------------------------------|
A |--------------------------------|--------------------------------|
C#|0---0---0---0-0---0---0---0-0---|0---0---0---0-0---0---0---0-0---|
   PM....................    ............................    ......

   1 e & a 2 e & a 3 e & a 4 e & a  1 e & a 2 e & a 3 e & a
D |--------------------------------|------------------------|
A |--------------------------------|------------------------|
F |--------------------------------|------------------------|
C |--------------------------------|------------------------|
G |--------------------------------|------------------------|
D |--------------------------------|------------------------|
A |--------------------------------|------------------------|
C#|0---0---0---0-0---0---0---0-0---|0---0---0---0-0---0---0-|
   PM....................    ............................

[Pre-Chorus 2]

   1 e & a 2 e & a 
D |----------------|
A |--9---9---9---9-|
F |9---9---9---9---|
C |----------------|
G |----------------|
D |----------------|
A |----------------|
C#|----------------|

[Chorus 2]

   1 e & a 2 e & a 3 e & a 4 e & a  1 e & a 2 e & a 3 e & a 4 e & a 
D |--------------------------------|--------------------------------|
A |--------------------------------|--------------------------------|
F |--------------------------------|--------------------------------|
C |--------------------------------|--------------------------------|
G |--------------------------------|--------------------------------|
D |7------(7)\\3---------------3---|5------(5)--5------(5)----------|
A |5------(5)\\1---------------1---|3-------3--(3)------3-----------|
C#|--------------------------------|--------------------------------|
  
   1 e & a 2 e & a 3 e & a 4 e & a  1 e & a 2 e & a 3 e & a 4 e & a 
D |--------------------------------|--------------------------------|
A |--------------------------------|--------------------------------|
F |--------------------------------|--------------------------------|
C |--------------------------------|--------------------------------|
G |--------------------------------|--------------------------------|
D |------------7-7-7-7-7-7-7-7-7-7-|------------8-8-8-8-8-8-8-8-8-8-|
A |5-5-5-5-------------------------|--------------------------------|
C#|--------------------------------|6-6-6-6-------------------------| x2
   PM......                        PM......

[Bridge]

   1 e & a 2 e & a 3 e & a 4 e & a  1 e & a 2 e & a 3 e & a 4 e & a 
D |--------------------------------|--------------------------------|
A |--------------------------------|-----------*4-4-4/6-6-6-6/8-8-8*| *Guitar 2*
F |--------------------------------|--------------------------------|
C |------------4-4-4/5-5-5-5/7-7-7-|--------------------------------|
G |--------------------------------|------------1-1-1/2-2-2-2/4-4-4-|
D |3-3-3-3-------------------------|5-5-5-5-------------------------|
A |1-1-1-1-------------------------|3-3-3-3-------------------------|
C#|--------------------------------|--------------------------------|
   PM......                        PM......

   1   e   &   a   2   e   &   a   3   e   &   a   4   e   &   a
D |----------------------------------------------------------------|
A |----------------------------------------------------------------|
F |----------------------------------------------------------------|
C |----------------------------------------------------------------|
G |7-------9-------10--9-------7-------9-------10------9---7-------|
D |----7-------7-----------7---------------------------------------|
A |----------------------------------------------------------------|
C#|----------------------------------------------------------------|
       PM      PM          PM

   1   e   &   a   2   e   &   a   3   e   &   a   4   e   &   a  
D |----------------------------------------------------------------|
A |----------------------------------------------------------------|
F |----------------------------------------------------------------|
C |----------------------------------------------------------------|
G |7-------9-------10--9-------9-------10------12------10--9-------|
D |----7-------7-----------10--------------------------------------|
A |----------------------------------------------------------------|
C#|----------------------------------------------------------------|
       PM      PM          PM

   1 e & a 2 e & a 3 e & a 4 e & a  1 e & a 2 e & a 3 e & a 4 e & a 
D |--------------------------------|--------------------------------|
A |--------------------------------|--------------------------------|
F |---------------*4*-----*2*------|---------------*2*-----*0*------| *Guitar 2*
C |----------------5-------4-------|----------------4-------2-------|
G |--------------------------------|--------------------------------|
D |3-3-3-3---3-3-3-----------------|5-5-5-5---5-5-5-----------------|
A |1-1-1-1---1-1-1-----------------|3-3-3-3---3-3-3-----------------|
C#|--------------------------------|--------------------------------|
   PM..............                PM..............

[Chorus 3]
   1 e & a 2 e & a 3 e & a 4 e & a  1 e & a 2 e & a 3 e & a 4 e & a 
D |--------------------------------|--------------------------------|
A |--------------------------------|--------------------------------|
F |--------------------------------|--------------------------------|
C |--------------------------------|--------------------------------|
G |--------------------------------|--------------------------------|
D |7------(7)\\3---------------3---|5------(5)--5------(5)----------|
A |5------(5)\\1---------------1---|3-------3--(3)------3-----------|
C#|--------------------------------|--------------------------------|
  
   1 e & a 2 e & a 3 e & a 4 e & a  1 e & a 2 e & a 3 e & a 4 e & a 
D |--------------------------------|--------------------------------|
A |--------------------------------|--------------------------------|
F |--------------------------------|--------------------------------|
C |--------------------------------|--------------------------------|
G |--------------------------------|--------------------------------|
D |------------7-7-7-7-7-7-7-7-7-7-|------------8-8-8-8-8-8-8-8-8-8-|
A |5-5-5-5-------------------------|--------------------------------|
C#|--------------------------------|6-6-6-6-------------------------| x2
   PM......                        PM......

[Outro]

   1 e & a 2 e & a 3 e & a 4 e & a  1 e & a 2 e & a 3 e & a 4 e & a 
D |--------------------------------|--------------------------------|
A |--9---9---9---9---9---9---9---9-|--9---9---9---9---9---9---9---9-|
F |9---9---9---9---9---9---9---9---|9---9---9---9---9---9---9---9---|
C |--------------------------------|--------------------------------|
G |--------------------------------|--------------------------------|
D |--------------------------------|--------------------------------|
A |--------------------------------|--------------------------------|
C#|--------------------------------|--------------------------------|

   1 e & a 2 e & a 3 e & a 4 e & a  1 e & a 2 e & a 3 e & a 4 e & a 
D |--------------------------------|--------------------------------|
A |--8---8---8---8---8---8---8---8-|--8---8---8---8---8---8---8---8-|
F |9---9---9---9---9---9---9---9---|9---9---9---9---9---9---9---9---|
C |--------------------------------|--------------------------------|
G |--------------------------------|--------------------------------|
D |--------------------------------|--------------------------------|
A |--------------------------------|--------------------------------|
C#|--------------------------------|--------------------------------|

   1 e & a 2 e & a 3 e & a 4 e & a  1 e & a 2 e & a 3 e & a 4 e & a 
D |--------------------------------|--------------------------------|
A |--8---8---8---8---8---8---8---8-|--8---8---8---8---8---8---8---8-|
F |8---8---8---8---8---8---8---8---|8---8---8---8---8---8---8---8---|
C |--------------------------------|--------------------------------|
G |--------------------------------|--------------------------------|
D |--------------------------------|--------------------------------|
A |--------------------------------|--------------------------------|
C#|--------------------------------|--------------------------------|

   1 e & a 2 e & a 3 e & a 4 e & a  1 e & a 2 e & a 3 e & a 4 e & a 
D |--------------------------------|--------------------------------|
A |--4---4---4---4---4---4---4---4-|--4---4---4---4---4---4---4---4-|
F |5---5---5---5---5---5---5---5---|5---5---5---5---5---5---5---5---|
C |--------------------------------|--------------------------------|
G |--------------------------------|--------------------------------|
D |--------------------------------|--------------------------------|
A |--------------------------------|--------------------------------|
C#|--------------------------------|--------------------------------|

   1 e & a 2 e & a 3 e & a 4 e & a  1 e & a 2 e & a 3 e & a 4 e & a 
D |--------------------------------|--------------------------------|
A |--4---4---4---4---4---4---4---4-|--4---4---4---4---4---4---4---4-|
F |4---4---4---4---4---4---4---4---|4---4---4---4---4---4---4---4---|
C |--------------------------------|--------------------------------|
G |--------------------------------|--------------------------------|
D |--------------------------------|--------------------------------|
A |--------------------------------|--------------------------------|
C#|--------------------------------|--------------------------------|
 
   1 e & a 2 e & a 3 e & a 4 e & a  1 e & a 2 e & a 3 e & a 4 e & a 
D |--------------------------------|--------------------------------|
A |--4---4---4---4---4---4---4---4-|--4---4---4---4---4---4---4---4-|
F |3---3---3---3---3---3---3---3---|3---3---3---3---3---3---3---3---|
C |--------------------------------|--------------------------------|
G |--------------------------------|--------------------------------|
D |--------------------------------|--------------------------------|
A |--------------------------------|--------------------------------|
C#|--------------------------------|--------------------------------|

   1 e & a 2 e & a 3 e & a 4 e & a  1 e & a 2 e & a 3 e & a 4 e & a 
D |--------------------------------|--------------------------------|
A |--4---4---4---4---4---4---4---4-|--4---4---4---4---4---4---4---4-|
F |3---3---3---3---3---3---3---3---|3---3---3---3---3---3---3---3---|
C |--------------------------------|--------------------------------|
G |--------------------------------|--------------------------------|
D |--------------------------------|--------------------------------|
A |--------------------------------|--------------------------------|
C#|--------------------------------|--------------------------------|

   1 e & a 2 e & a 3 e & a 4 e & a  1 e & a 2 e & a 3 e & a 4 e & a 
D |--------------------------------|--------------------------------|
A |--4---4---4---4---4---4---4---4-|--4---4---4---4---4---4---4---4-|
F |5---5---5---5---5---5---5---5---|5---5---5---5---5---5---5---5---|
C |--------------------------------|--------------------------------|
G |--------------------------------|--------------------------------|
D |--------------------------------|--------------------------------|
A |--------------------------------|--------------------------------|
C#|--------------------------------|--------------------------------|

   1 e & a 2 e & a 3 e & a 4 e & a  1 e & a 2 e & a 3 e & a 4 e & a 
D |--------------------------------|--------------------------------|
A |--4---4---4---4---4---4---4---4-|--4---4---4---4---4---4---4---4-|
F |4---4---4---4---4---4---4---4---|4---4---4---4---4---4---4---4---|
C |--------------------------------|--------------------------------|
G |--------------------------------|--------------------------------|
D |--------------------------------|--------------------------------|
A |--------------------------------|--------------------------------|
C#|--------------------------------|--------------------------------|

   1 e & a 2 e & a 3 e & a 4 e & a  1 e & a 2 e & a 3 e & a 4 e & a 
D |--------------------------------|--------------------------------|
A |--------------------------------|--------------------------------|
F |--------------------------------|--------------------------------|
C |--------------------------------|--------------------------------|
G |--------------------------------|--------------------------------|
D |--------------------------------|--------------------------------|
A |--------------------------------|--------------------------------|
C#|0---0---0---0-0---0---0---0-0---|0---0---0---0-0---0---0---------|
   PM....................    ............................


************************************

| (n) Ghost note
| h   Hammer-on
| p   Pull-off
| /   Slide up
| \   Slide down
| ~   Vibrato
| PM  Palm mute

************************************
Suggest correction
Give kudos to tab author, rate the tab!
1 2 3 4 5
comments
print report bad tab
guest
You may want to rate the tab now too:
select rating
Wanna post a correction for this tab? Suggest correction