Oops, an error
Loading. Please wait.

Dead Again Tab

28 views 12 this week
no commentswrite comment
1 2 3 4 5
3 more votes to show rating
add to favorites
launch autoscroll
font size
0
reset
how to read this tab
guitar tuner
Autoscroll
slow
fast
+/-
esc
set tempo
stop
Help us to improve Ultimate-Guitar.com Take our survey!
×
Author
Difficulty
Tuning
advanced
D G C F A D
About this tab version
This is the tab for Kevin Sherwood's Dead Again, a song mainly known as the Call of Duty: Black Ops 3 Zombies easter egg song for the Zombies map "Der Eisendrache". Like all of Kevin's songs, they are made to be played on an 8 string guitar. The creator of this tab has a YouTube channel called Jonny Hudson and did a cover of Dead Again with an 8 string guitar so check it out if you need visual aid with the tab. The link to his channel is ( https://www.youtube.com/channel/UCZIOxU8t8DGVsKitoWRWIFQ ) and the link to the Dead Again cover is ( https://www.youtube.com/watch?v=rsypa3ydF5w ). Be sure to listen to the covers with headphones on. Was this info helpful? Yes No
[Intro A]

   1   &   a   2   &   a   3   &   a   4   &   a    1   &   a   2   &   a   3   &   a   4   &   a
D |------------------------------------------------|------------------------------------------------|
A |------------------------------------------------|------------------------------------------------|
F |------------------------------------------------|------------------------------------------------|
C |------------------------------------------------|------------------------------------------------|
G |----------------------------14------------------|------------------------------------------------|
D |------------14------------------------------17--|------------16----------------17------------15--|
A |0---11--12------0---12--14------0---14--15------|0---15--17------0---14--15------0---12--14------|
E |------------------------------------------------|------------------------------------------------|

   1   &   a   2   &   a   3   &   a   4   &   a    1   &   a   2   &   a   3   &   a   4   &   a
D |------------------------------------------------|------------------------------------------------|
A |------------------------------------------------|------------------------------------------------|
F |------------------------------------------------|------------------------------------------------|
C |------------------------------------------------|------------------------------------------------|
G |----------------------------14--------------16--|------------17--------------13------13--14--16--|
D |------------14----------------------------------|0---14--15----------14--16----------------------|
A |0---11--12------0---12--14------0---14--15------|------------------------------------------------|
E |------------------------------------------------|----------------0---------------0---------------| x3

[Verse 1]
   
   1 & a 2 & a 3 & a 4 & a  1 & a 2 & a 3 & a 4 & a 
D |------------------------|------------------------|
A |------------------------|------------------------|
F |------------------------|------------------------|
C |------------------------|------------------------|
G |------------------------|------------------------|
D |2-----------------------|4-----5-----7-----9-----|
A |0---0-0-0-0-0-0-0-0-0-0-|2-0-0-3-0-0-5-0-0-7-0-0-|
E |------------------------|------------------------|
       PM...........................................

   1 & a 2 & a 3 & a 4 & a  1 & a 2 & a 3 & a 4 & a 
D |------------------------|------------------------|
A |------------------------|------------------------|
F |------------------------|------------------------|
C |------------------------|------------------------|
G |------------------------|------------------------|
D |5-----------------------|1-1-1-1-1-1-4-4-4-4-4-4-|
A |3-----3-3-3-3-3-3-3-3-3-|3-3-3-3-3-3-6-6-6-6-6-6-|
E |------------------------|------------------------|
         PM.........................................

   1 & a 2 & a 3 & a 4 & a  1 & a 2 & a 3 & a 4 & a 
D |------------------------|------------------------|
A |------------------------|------------------------|
F |------------------------|------------------------|
C |------------------------|------------------------|
G |------------------------|------------------------|
D |2-----------------------|4-----6-----8-----10----|
A |0---0-0-0-0-0-0-0-0-0-0-|2-0-0-4-0-0-6-0-0-8-0-0-|
E |------------------------|------------------------|
       PM...........................................

   1   &   a   2   &   a   3   &   a   4   &   a    1   &   a   2   &   a   3   &   a   4   &   a
D |------------------------------------------------|------------------------------------------------|
A |------------------------------------------------|------------------------------------------------|
F |------------------------------------------------|------------------------------------------------|
C |------------------------------------------------|------------------------------------------------|
G |------------------------------------------------|------------------------------------------------|
D |7-----------------------------------------------|3-------3---------------3-------3---------------|
A |5-------5---5---5---5---0---10--12--13--12--10--|5-------5-------3---3---4-------4-------0---0---|
E |------------------------------------------------|------------------------------------------------|
                           PM......................                 PM  PM                  PM  PM

   1 & a 2 & a 3 & a 4 & a  1 & a 2 & a 3 & a 4 & a 
D |------------------------|------------------------|
A |------------------------|------------------------|
F |------------------------|------------------------|
C |------------------------|------------------------|
G |------------------------|------------------------|
D |2-----------------------|4-----5-----7-----9-----|
A |0---0-0-0-0-0-0-0-0-0-0-|2-0-0-3-0-0-5-0-0-7-0-0-|
E |------------------------|------------------------|
       PM...........................................

   1 & a 2 & a 3 & a 4 & a  1 & a 2 & a 3 & a 4 & a 
D |------------------------|------------------------|
A |------------------------|------------------------|
F |------------------------|------------------------|
C |------------------------|------------------------|
G |------------------------|------------------------|
D |5-----------------------|1-1-1-1-1-1-4-4-4-4-4-4-|
A |3-----3-3-3-3-3-3-3-3-3-|3-3-3-3-3-3-5-5-5-5-5-5-|
E |------------------------|------------------------|
         PM.........................................

   1 & a 2 & a 3 & a 4 & a  1 & a 2 & a 3 & a 4 & a 
D |------------------------|------------------------|
A |------------------------|------------------------|
F |------------------------|------------------------|
C |------------------------|------------------------|
G |------------------------|------------------------|
D |2-----------------------|4-----6-----8-----10----|
A |0---0-0-0-0-0-0-0-0-0-0-|2-0-0-4-0-0-6-0-0-8-0-0-|
E |------------------------|------------------------|
       PM...........................................

   1   &   a   2   &   a   3   &   a   4   &   a    1   &   a   2   &   a   3   &   a   4   &   a
D |------------------------------------------------|------------------------------------------------|
A |------------------------------------------------|------------------------------------------------|
F |------------------------------------------------|------------------------------------------------|
C |------------------------------------------------|------------------------------------------------|
G |------------------------------------------------|------------------------------------------------|
D |7-----------------------------------------------|3-------3---------------4-------4---------------|
A |5-------5---5---5---5---0---10--12--13--12--10--|5-------5-------5---5---5-------5-------0---0---|
E |------------------------------------------------|------------------------------------------------|
                           PM......................                 PM  PM                  PM  PM

   1 & a 2 & a 3 & a 4 & a  1 & a 2 & a 3 & a 4 & a 
D |------------------------|------------------------|
A |------------------------|------------------------|
F |------------------------|------------------------|
C |------------------------|------------------------|
G |------------------------|4---4---4---4-----------|
D |7---7---7---7-----------|5---5---5---5-----------|
A |3---3---3-0-3-0-0-0-0-0-|----------0---0-0-0-0-0-|
E |------------------------|------------------------|
             PM  ...........          PM  ..........

   1 & a 2 & a 3 & a 4 & a  1 & a 2 & a 3 & a 4 & a 
D |------------------------|------------------------|
A |------------------------|------------------------|
F |------------------------|------------------------|
C |------------------------|------------------------|
G |5---5---5---5-----------|9---9-------9---9-------|
D |7---7---7---7-----------|5---5-------5---5-------|
A |----------0---0-0-0-0-0-|--------0-0---------0-0-|
E |------------------------|------------------------|
             PM  ...........        PM..        PM..

   1   &   a   2   &   a   3   &   a   4   &   a    1   &   a   2   &   a   3   &   a   4   &   a
D |------------------------------------------------|------------------------------------------------|
A |------------------------------------------------|------------------------------------------------|
F |------------------------------------------------|------------------------------------------------|
C |------------------------------------------------|------------------------------------------------|
G |10------10------10------10----------------------|7-------7-------7-------7-----------------------|
D |7-------7-------7-------7-----------------------|9-------9-------9-------9-----------------------|
A |--------------------0-------0---0---0---0---0---|--------------------0-------0---0---0---0---0---|
E |------------------------------------------------|------------------------------------------------|
                       PM      ....................                     PM      ....................

   1 & a 2 & a 3 & a 4 & a  1 & a 2 & a 3 & a 4 & a 
D |------------------------|------------------------|
A |------------------------|------------------------|
F |------------------------|------------------------|
C |------------------------|------------------------|
G |9-9-9-9-9-9-9-----------|4---4-------4---4-------|
D |5-5-5-5-5-5-5-----------|5---5-------5---5-------|
A |----------------0-0-0-0-|--------0-0---------0-0-|
E |------------------------|------------------------|
                   PM......         PM..        PM..


   1 & a 2 & a 3 & a 4 & a  1 & a 2 & a 3 & a 4 & a 
D |------------------------|------------------------|
A |------------------------|------------------------|
F |------------------------|------------------------|
C |------------------------|------------------------|
G |------------------------|------------------------|
D |2-----------------------|4-----5-----7-----9-----|
A |0---0-0-0-0-0-0-0-0-0-0-|2-0-0-3-0-0-5-0-0-7-0-0-|
E |------------------------|------------------------|
       PM...........................................

   1 & a 2 & a 3 & a 4 & a  1 & a 2 & a 3 & a 4 & a 
D |------------------------|------------------------|
A |------------------------|------------------------|
F |------------------------|------------------------|
C |------------------------|------------------------|
G |------------------------|------------------------|
D |5-----------------------|1-1-1-1-1-1-4-4-4-4-4-4-|
A |3-----3-3-3-3-3-3-3-3-3-|3-3-3-3-3-3-5-5-5-5-5-5-|
E |------------------------|------------------------|
         PM.........................................
   1 & a 2 & a 3 & a 4 & a  1 & a 2 & a 3 & a 4 & a 
D |------------------------|------------------------|
A |------------------------|------------------------|
F |------------------------|------------------------|
C |------------------------|------------------------|
G |------------------------|------------------------|
D |2-----------------------|4-----6-----8-----10----|
A |0---0-0-0-0-0-0-0-0-0-0-|2-0-0-4-0-0-6-0-0-8-0-0-|
E |------------------------|------------------------|
       PM...........................................

   1   &   a   2   &   a   3   &   a   4   &   a    1   &   a   2   &   a   3   &   a   4   &   a
D |------------------------------------------------|------------------------------------------------|
A |------------------------------------------------|------------------------------------------------|
F |------------------------------------------------|------------------------------------------------|
C |------------------------------------------------|------------------------------------------------|
G |------------------------------------------------|------------------------4-----------------------|
D |7-----------------------------------------------|5-------5-------5-------2-----------------------|
A |5-------5---5---5---5---0---10--12--13--12--10--|3-------3-------3---0---------------------------|
E |------------------------------------------------|------------------------------------------------|
                           PM......................                     PM

[Chorus 1]

   1   &   a   2   &   a   3   &   a   4   &   a    1   &   a   2   &   a   3   &   a   4   &   a
D |------------------------------------------------|------------------------------------------------|
A |11--0---9---11--9---0---11--0---9---11--9---0---|11--0---9---11--9---0---11--0---9---11--9---0---|L. Guitar
F |------------------------------------------------|------------------------------------------------|
C |------------------------------------------------|------------------------------------------------|
G |------------------------------------------------|------------------------------------------------|R. Guitar
D |7---7---7---7---7---7---7---7---7---7---7---7---|7---7---7---7---7---7---7---7---7---7---7---7---|R. Guitar
A |5---5---5---5---5---5---5---5---5---5---5---5---|5---5---5---5---5---5---5---5---5---5---5---5---|R. Guitar
E |------------------------------------------------|------------------------------------------------|
  
   1   &   a   2   &   a   3   &   a   4   &   a    1   &   a   2   &   a   3   &   a   4   &   a
D |------------------------------------------------|------------------------------------------------|
A |12--0---11--12--11--0---12--0---11--12--11--0---|12--0---11--12--11--0---12--0---11--12--11--0---|
F |------------------------------------------------|------------------------------------------------|
C |------------------------------------------------|------------------------------------------------|
G |------------------------------------------------|------------------------------------------------|
D |11--11--11--11--11--11--11--11--11--11--11--11--|11--11--11--11--11--11--11--11--11--11--11--11--|
A |9---9---9---9---9---9---9---9---9---9---9---9---|9---9---9---9---9---9---9---9---9---9---9---9---|
E |------------------------------------------------|------------------------------------------------|

   1   &   a   2   &   a   3   &   a   4   &   a    1   &   a   2   &   a   3   &   a   4   &   a
D |------------------------------------------------|------------------------------------------------|
A |11--0---9---11--9---0---11--0---9---11--9---0---|11--0---9---11--9---0---11--0---9---11--9---0---|
F |------------------------------------------------|------------------------------------------------|
C |------------------------------------------------|------------------------------------------------|
G |------------------------------------------------|------------------------------------------------|
D |7---7---7---7---7---7---7---7---7---7---7---7---|7---7---7---7---7---7---7---7---7---7---7---7---|
A |5---5---5---5---5---5---5---5---5---5---5---5---|5---5---5---5---5---5---5---5---5---5---5---5---|
E |------------------------------------------------|------------------------------------------------|

   1   &   a   2   &   a   3   &   a   4   &   a    1   &   a   2   &   a   3   &   a   4   &   a
D |------------------------------------------------|------------------------------------------------|
A |12--0---11--12--11--0---12--0---11--12--11--0---|12--0---11--12--11--0---12--0---11--12--11--0---|
F |------------------------------------------------|------------------------------------------------|
C |------------------------------------------------|------------------------------------------------|
G |------------------------------------------------|------------------------------------8---8---8---|
D |11--11--11--11--11--11--11--11--11--11--11--11--|11--11--11--10--10--10--11--11--11--6---6---6---|
A |9---9---9---9---9---9---9---9---9---9---9---9---|9---9---9---8---8---8---9---9---9---------------|
E |------------------------------------------------|------------------------------------------------|

   1   &   a   2   &   a   3   &   a   4   &   a    1   &   a   2   &   a   3   &   a   4   &   a
D |------------------------------------------------|------------------------------------------------|
A |12--0---12--14--12--0---12--0---12--14--12--0---|12--0---12--14--12--0---12--0---12--14--12--0---|
F |------------------------------------------------|------------------------------------------------|
C |------------------------------------------------|------------------------------------------------|
G |9---9---9---9---9---9---9---9---9---9---9---9---|9---9---9---9---9---9---9---9---9---9---9---9---|
D |7---7---7---7---7---7---7---7---7---7---7---7---|7---7---7---7---7---7---7---7---7---7---7---7---|
A |------------------------------------------------|------------------------------------------------|
E |------------------------------------------------|------------------------------------------------|

   1   &   a   2   &   a   3   &   a   4   &   a    1   &   a   2   &   a   3   &   a   4   &   a
D |------------------------------------------------|------------------------------------------------|
A |14--0---14--16--14--0---14--0---14--16--14--0---|16--0---16--17--16--0---16--0---16--17--16--0---|
F |------------------------------------------------|------------------------------------------------|
C |------------------------------------------------|------------------------------------------------|
G |------------------------------------------------|------------------------------------------------|
D |13--13--13--13--13--13--13--13--13--13--13--13--|13--13--13--13--13--13--13--13--13--13--13--13--|
A |11--11--11--11--11--11--11--11--11--11--11--11--|11--11--11--11--11--11--11--11--11--11--11--11--|
E |------------------------------------------------|------------------------------------------------|

   1   &   a   2   &   a   3   &   a   4   &   a    1   &   a   2   &   a   3   &   a   4   &   a
D |------------------------------------------------|------------------------------------------------|
A |12--0---12--14--12--0---12--0---12--14--12--0---|12--0---12--14--12--0---12--0---12--14--12--0---|
F |------------------------------------------------|------------------------------------------------|
C |------------------------------------------------|------------------------------------------------|
G |9---9---9---9---9---9---9---9---9---9---9---9---|9---9---9---9---9---9---9---9---9---9---9---9---|
D |7---7---7---7---7---7---7---7---7---7---7---7---|7---7---7---7---7---7---7---7---7---7---7---7---|
A |------------------------------------------------|------------------------------------------------|
E |------------------------------------------------|------------------------------------------------|

   1   &   a   2   &   a   3   &   a   4   &   a    1   &   a   2   &   a   3   &   a   4   &   a
D |------------------------------------------------|------------------------------------------------|
A |11--0---11--12--11--0---11--0---11--12--11--0---|11--0---11--12--11--0---11--0---11--12--11--0---|
F |------------------------------------------------|------------------------------------------------|
C |------------------------------------------------|------------------------------------------------|
G |11--11--11--11--11--11--11--11--11--11--11--11--|11--11--11--11--11--11--11--11--11--11--11--11--|
D |9---9---9---9---9---9---9---9---9---9---9---9---|9---9---9---9---9---9---9---9---9---9---9---9---|
A |------------------------------------------------|------------------------------------------------|
E |------------------------------------------------|------------------------------------------------|

[Intro B]

   1   &   a   2   &   a   3   &   a   4   &   a    1   &   a   2   &   a   3   &   a   4   &   a
D |------------------------------------------------|------------------------------------------------|
A |------------------------------------------------|------------------------------------------------|
F |------------------------------------------------|------------------------------------------------|
C |------------------------------------------------|------------------------------------------------|
G |----------------------------14------------------|------------------------------------------------|
D |------------14------------------------------17--|------------16----------------17------------15--|
A |0---11--12------0---12--14------0---14--15------|0---15--17------0---14--15------0---12--14------|
E |------------------------------------------------|------------------------------------------------|

   1   &   a   2   &   a   3   &   a   4   &   a    1   &   a   2   &   a   3   &   a   4   &   a
D |------------------------------------------------|------------------------------------------------|
A |------------------------------------------------|------------------------------------------------|
F |------------------------------------------------|------------------------------------------------|
C |------------------------------------------------|------------------------------------------------|
G |----------------------------14--------------16--|------------17--------------13------13--14--16--|
D |------------14----------------------------------|0---14--15----------14--16----------------------|
A |0---11--12------0---12--14------0---14--15------|------------------------------------------------|
E |------------------------------------------------|----------------0---------------0---------------| x2

[Verse 2]

   1 & a 2 & a 3 & a 4 & a  1 & a 2 & a 3 & a 4 & a 
D |------------------------|------------------------|
A |------------------------|------------------------|
F |------------------------|------------------------|
C |------------------------|------------------------|
G |------------------------|------------------------|
D |2-----------------------|4-----5-----7-----9-----|
A |0---0-0-0-0-0-0-0-0-0-0-|2-0-0-3-0-0-5-0-0-7-0-0-|
E |------------------------|------------------------|
       PM...........................................

   1 & a 2 & a 3 & a 4 & a  1 & a 2 & a 3 & a 4 & a 
D |------------------------|------------------------|
A |------------------------|------------------------|
F |------------------------|------------------------|
C |------------------------|------------------------|
G |------------------------|------------------------|
D |5-----------------------|------------------------|
A |3-----3-3-3-3-3-3-3-3-3-|5-5-5-5-5-6-4-4-4-4-4-5-|
E |------------------------|------------------------|
         PM................
   1 & a 2 & a 3 & a 4 & a  1 & a 2 & a 3 & a 4 & a 
D |------------------------|------------------------|
A |------------------------|------------------------|
F |------------------------|------------------------|
C |------------------------|------------------------|
G |------------------------|------------------------|
D |2-----------------------|4-----6-----8-----10----|
A |0---0-0-0-0-0-0-0-0-0-0-|2-0-0-4-0-0-6-0-0-8-0-0-|
E |------------------------|------------------------|
       PM...........................................

   1   &   a   2   &   a   3   &   a   4   &   a    1   &   a   2   &   a   3   &   a   4   &   a
D |------------------------------------------------|------------------------------------------------|
A |------------------------------------------------|------------------------------------------------|
F |------------------------------------------------|------------------------------------------------|
C |------------------------------------------------|------------------------------------------------|
G |------------------------------------------------|5-------5---------------5-------5---------------|
D |7-----------------------------------------------|7-------7-------5---5---6-------6---------------|
A |5-------5---5---5---5---0---10--12--13--12--10--|----------------------------------------0---0---|
E |------------------------------------------------|------------------------------------------------|
                           PM......................                 PM  PM                  PM  PM

   1 & a 2 & a 3 & a 4 & a  1 & a 2 & a 3 & a 4 & a 
D |------------------------|------------------------|
A |------------------------|------------------------|
F |------------------------|------------------------|
C |------------------------|------------------------|
G |------------------------|------------------------|
D |2-----------------------|4-----5-----7-----9-----|
A |0---0-0-0-0-0-0-0-0-0-0-|2-0-0-3-0-0-5-0-0-7-0-0-|
E |------------------------|------------------------|
       PM...........................................

   1 & a 2 & a 3 & a 4 & a  1 & a 2 & a 3 & a 4 & a 
D |------------------------|------------------------|
A |------------------------|------------------------|
F |------------------------|------------------------|
C |------------------------|6-6-6-6-6-6-5-5-5-5-5-5-|
G |------------------------|------------------------|
D |5-----------------------|4-4-4-4-4-4-3-3-3-3-3-3-|
A |3-----3-3-3-3-3-3-3-3-3-|------------------------|
E |------------------------|------------------------|
         PM.........................................

   1 & a 2 & a 3 & a 4 & a  1 & a 2 & a 3 & a 4 & a 
D |------------------------|------------------------|
A |------------------------|------------------------|
F |------------------------|------------------------|
C |------------------------|------------------------|
G |------------------------|------------------------|
D |2-----------------------|4-----6-----8-----10----|
A |0---0-0-0-0-0-0-0-0-0-0-|2-0-0-4-0-0-6-0-0-8-0-0-|
E |------------------------|------------------------|
       PM...........................................

   1   &   a   2   &   a   3   &   a   4   &   a    1   &   a   2   &   a   3   &   a   4   &   a
D |------------------------------------------------|------------------------------------------------|
A |------------------------------------------------|------------------------------------------------|
F |------------------------------------------------|------------------------------------------------|
C |------------------------------------------------|------------------------------------------------|
G |------------------------------------------------|------------------------------------------------|
D |7-----------------------------------------------|3-------3---------------4-------4---------------|
A |5-------5---5---5---5---0---10--12--13--12--10--|5-------5-------5---5---5-------5-------0---0---|
E |------------------------------------------------|------------------------------------------------|
                           PM......................                 PM  PM                  PM  PM

   1 & a 2 & a 3 & a 4 & a  1 & a 2 & a 3 & a 4 & a 
D |------------------------|------------------------|
A |------------------------|------------------------|
F |------------------------|------------------------|
C |------------------------|------------------------|
G |------------------------|4---4---4---4-----------|
D |7---7---7---7-----------|5---5---5---5-----------|
A |3---3---3-0-3-0-0-0-0-0-|----------0---0-0-0-0-0-|
E |------------------------|------------------------|
             PM  ..........           PM  ..........

   1 & a 2 & a 3 & a 4 & a  1 & a 2 & a 3 & a 4 & a 
D |------------------------|------------------------|
A |------------------------|------------------------|
F |------------------------|------------------------|
C |------------------------|------------------------|
G |5---5---5---5-----------|9---9-------9---9-------|
D |7---7---7---7-----------|5---5-------5---5-------|
A |----------0---0-0-0-0-0-|--------0-0---------0-0-|
E |------------------------|------------------------|
             PM  ..........         PM..        PM..

   1   &   a   2   &   a   3   &   a   4   &   a    1   &   a   2   &   a   3   &   a   4   &   a
D |------------------------------------------------|------------------------------------------------|
A |------------------------------------------------|------------------------------------------------|
F |------------------------------------------------|------------------------------------------------|
C |------------------------------------------------|------------------------------------------------|
G |10------10------10------10----------------------|7-------7-------7-------7-----------------------|
D |7-------7-------7-------7-----------------------|9-------9-------9-------9-----------------------|
A |--------------------0-------0---0---0---0---0---|--------------------0-------0---0---0---0---0---|
E |------------------------------------------------|------------------------------------------------|
                       PM      ....................                     PM      ....................

   1 & a 2 & a 3 & a 4 & a  1 & a 2 & a 3 & a 4 & a 
D |------------------------|------------------------|
A |------------------------|------------------------|
F |------------------------|------------------------|
C |------------------------|------------------------|
G |9-9-9-9-9-9-9-----------|4---4-------4---4-------|
D |5-5-5-5-5-5-5-----------|5---5-------5---5-------|
A |----------------0-0-0-0-|--------0-0---------0-0-|
E |------------------------|------------------------|
                   PM......         PM..        PM..


   1 & a 2 & a 3 & a 4 & a  1 & a 2 & a 3 & a 4 & a 
D |------------------------|------------------------|
A |------------------------|------------------------|
F |------------------------|------------------------|
C |------------------------|------------------------|
G |------------------------|------------------------|
D |2-----------------------|4-----5-----7-----9-----|
A |0---0-0-0-0-0-0-0-0-0-0-|2-0-0-3-0-0-5-0-0-7-0-0-|
E |------------------------|------------------------|
       PM...........................................

   1 & a 2 & a 3 & a 4 & a  1 & a 2 & a 3 & a 4 & a 
D |------------------------|------------------------|
A |------------------------|------------------------|
F |------------------------|------------------------|
C |------------------------|------------------------|
G |------------------------|------------------------|
D |5-----------------------|1-1-1-4-4-4-4-4-4-7-7-7-|
A |3-----3-3-3-3-3-3-3-3-3-|3-3-3-5-5-5-6-6-6-8-8-8-|
E |------------------------|------------------------|
         PM.........................................
   1 & a 2 & a 3 & a 4 & a  1 & a 2 & a 3 & a 4 & a 
D |------------------------|------------------------|
A |------------------------|------------------------|
F |------------------------|------------------------|
C |------------------------|------------------------|
G |------------------------|------------------------|
D |2-----------------------|4-----6-----8-----10----|
A |0---0-0-0-0-0-0-0-0-0-0-|2-0-0-4-0-0-6-0-0-8-0-0-|
E |------------------------|------------------------|
       PM...........................................

   1   &   a   2   &   a   3   &   a   4   &   a    
D |------------------------------------------------|
A |------------------------------------------------|
F |------------------------------------------------|
C |------------------------------------------------|
G |------------------------------------------------|
D |7-----------------------------------------------|
A |5-------5---5---5---5---0---10--12--13--12--10--|
E |------------------------------------------------|
                           PM......................

   1 & a 2 & a 3 & a 4 & a  1 & a 2 & a 3 & a 4 & a 
D |------------------------|------------------------|
A |------------------------|------------------------|
F |------------------------|------------------------|
C |------------------------|------------------------|
G |------------------------|------------------------|
D |7---7-------9---9---9---|9---9---9---9-----------|
A |3---3---3-0-6---6---6-0-|5---5---5-0-7-----------|
E |------------------------|------------------------| 
             PM          PM           PM

[Chorus 2]

   1   &   a   2   &   a   3   &   a   4   &   a    1   &   a   2   &   a   3   &   a   4   &   a
D |------------------------------------------------|------------------------------------------------|
A |11--0---9---11--9---0---11--0---9---11--9---0---|11--0---9---11--9---0---11--0---9---11--9---0---|L. Guitar
F |------------------------------------------------|------------------------------------------------|
C |------------------------------------------------|------------------------------------------------|
G |------------------------------------------------|------------------------------------------------|R. Guitar
D |7---7---7---7---7---7---7---7---7---7---7---7---|7---7---7---7---7---7---7---7---7---7---7---7---|R. Guitar
A |5---5---5---5---5---5---5---5---5---5---5---5---|5---5---5---5---5---5---5---5---5---5---5---5---|R. Guitar
E |------------------------------------------------|------------------------------------------------|
  
   1   &   a   2   &   a   3   &   a   4   &   a    1   &   a   2   &   a   3   &   a   4   &   a
D |------------------------------------------------|------------------------------------------------|
A |12--0---11--12--11--0---12--0---11--12--11--0---|12--0---11--12--11--0---12--0---11--12--11--0---|
F |------------------------------------------------|------------------------------------------------|
C |------------------------------------------------|------------------------------------------------|
G |------------------------------------------------|------------------------------------------------|
D |11--11--11--11--11--11--11--11--11--11--11--11--|11--11--11--11--11--11--11--11--11--11--11--11--|
A |9---9---9---9---9---9---9---9---9---9---9---9---|9---9---9---9---9---9---9---9---9---9---9---9---|
E |------------------------------------------------|------------------------------------------------|

   1   &   a   2   &   a   3   &   a   4   &   a    1   &   a   2   &   a   3   &   a   4   &   a
D |------------------------------------------------|------------------------------------------------|
A |11--0---9---11--9---0---11--0---9---11--9---0---|11--0---9---11--9---0---11--0---9---11--9---0---|
F |------------------------------------------------|------------------------------------------------|
C |------------------------------------------------|------------------------------------------------|
G |------------------------------------------------|------------------------------------------------|
D |7---7---7---7---7---7---7---7---7---7---7---7---|7---7---7---7---7---7---7---7---7---7---7---7---|
A |5---5---5---5---5---5---5---5---5---5---5---5---|5---5---5---5---5---5---5---5---5---5---5---5---|
E |------------------------------------------------|------------------------------------------------|

   1   &   a   2   &   a   3   &   a   4   &   a    1   &   a   2   &   a   3   &   a   4   &   a
D |------------------------------------------------|------------------------------------------------|
A |12--0---11--12--11--0---12--0---11--12--11--0---|12--0---11--12--11--0---12--0---11--12--11--0---|
F |------------------------------------------------|------------------------------------------------|
C |------------------------------------------------|------------------------------------------------|
G |------------------------------------------------|------------------------------------8---8---8---|
D |11--11--11--11--11--11--11--11--11--11--11--11--|11--11--11--10--10--10--11--11--11--6---6---6---|
A |9---9---9---9---9---9---9---9---9---9---9---9---|9---9---9---8---8---8---9---9---9---------------|
E |------------------------------------------------|------------------------------------------------|

   1   &   a   2   &   a   3   &   a   4   &   a    1   &   a   2   &   a   3   &   a   4   &   a
D |------------------------------------------------|------------------------------------------------|
A |12--0---12--14--12--0---12--0---12--14--12--0---|12--0---12--14--12--0---12--0---12--14--12--0---|
F |------------------------------------------------|------------------------------------------------|
C |------------------------------------------------|------------------------------------------------|
G |9---9---9---9---9---9---9---9---9---9---9---9---|9---9---9---9---9---9---9---9---9---9---9---9---|
D |7---7---7---7---7---7---7---7---7---7---7---7---|7---7---7---7---7---7---7---7---7---7---7---7---|
A |------------------------------------------------|------------------------------------------------|
E |------------------------------------------------|------------------------------------------------|

   1   &   a   2   &   a   3   &   a   4   &   a    1   &   a   2   &   a   3   &   a   4   &   a
D |------------------------------------------------|------------------------------------------------|
A |14--0---14--16--14--0---14--0---14--16--14--0---|16--0---16--17--16--0---16--0---16--17--16--0---|
F |------------------------------------------------|------------------------------------------------|
C |------------------------------------------------|------------------------------------------------|
G |------------------------------------------------|------------------------------------------------|
D |13--13--13--13--13--13--13--13--13--13--13--13--|13--13--13--13--13--13--13--13--13--13--13--13--|
A |11--11--11--11--11--11--11--11--11--11--11--11--|11--11--11--11--11--11--11--11--11--11--11--11--|
E |------------------------------------------------|------------------------------------------------|

   1   &   a   2   &   a   3   &   a   4   &   a    1   &   a   2   &   a   3   &   a   4   &   a
D |------------------------------------------------|------------------------------------------------|
A |12--0---12--14--12--0---12--0---12--14--12--0---|12--0---12--14--12--0---12--0---12--14--12--0---|
F |------------------------------------------------|------------------------------------------------|
C |------------------------------------------------|------------------------------------------------|
G |9---9---9---9---9---9---9---9---9---9---9---9---|9---9---9---9---9---9---9---9---9---9---9---9---|
D |7---7---7---7---7---7---7---7---7---7---7---7---|7---7---7---7---7---7---7---7---7---7---7---7---|
A |------------------------------------------------|------------------------------------------------|
E |------------------------------------------------|------------------------------------------------|

   1   &   a   2   &   a   3   &   a   4   &   a    1   &   a   2   &   a   3   &   a   4   &   a
D |------------------------------------------------|------------------------------------------------|
A |11--0---11--12--11--0---11--0---11--12--11--0---|11--0---11--12--11--0---11--0---11--12--11--0---|
F |------------------------------------------------|------------------------------------------------|
C |------------------------------------------------|------------------------------------------------|
G |11--11--11--11--11--11--11--11--11--11--11--11--|11--11--11--11--11--11--11--11--11--11--11--11--|
D |9---9---9---9---9---9---9---9---9---9---9---9---|9---9---9---9---9---9---9---9---9---9---9---9---|
A |------------------------------------------------|------------------------------------------------|
E |------------------------------------------------|------------------------------------------------|

[Bridge]

   1   &   a   2   &   a   3   &   a   4   &   a    1   &   a   2   &   a   3   &   a   4   &   a
D |------------------------------------------------|------------------------------------------------|
A |16--0---14--16--14--0---16--0---14--16--14--0---|14--0---12--14--12--0---14--0---12--14--12--0---|L. Guitar
F |------------------------------------------------|------------------------------------------------|
C |------------------------------------------------|------------------------------------------------|R. Guitar
G |11--11--11--11--11--11--11--11--11--11--11--11--|11--11--11--11--11--11--11--11--11--11--11--11--|R. Guitar
D |11--11--11--11--11--11--11--11--11--11--11--11--|9---9---9---9---9---9---9---9---9---9---9---9---|R. Guitar
A |9---9---9---9---9---9---9---9---9---9---9---9---|7---7---7---7---7---7---7---7---7---7---7---7---|R. Guitar
E |------------------------------------------------|------------------------------------------------|

   1   &   a   2   &   a   3   &   a   4   &   a    1   &   a   2   &   a   3   &   a   4   &   a
D |------------------------------------------------|------------------------------------------------|
A |12--0---11--12--11--0---12--0---11--12--11--0---|11--0---9---11--9---0---11--0---9---11--9---0---|
F |------------------------------------------------|------------------------------------------------|
C |------------------------------------------------|------------------------------------------------|
G |7---7---7---7---7---7---7---7---7---7---7---7---|11--11--11--11--11--11--11--11--11--11--11--11--|
D |7---7---7---7---7---7---7---7---7---7---7---7---|9---9---9---9---9---9---9---9---9---9---9---9---|
A |5---5---5---5---5---5---5---5---5---5---5---5---|7---7---7---7---7---7---7---7---7---7---7---7---|
E |------------------------------------------------|------------------------------------------------|

   1   &   a   2   &   a   3   &   a   4   &   a    1   &   a   2   &   a   3   &   a   4   &   a
D |------------------------------------------------|------------------------------------------------|
A |16--0---14--16--14--0---16--0---14--16--14--0---|17--0---16--17--16--0---17--0---16--17--16--0---|
F |------------------------------------------------|------------------------------------------------|
C |------------------------------------------------|------------------------------------------------|
G |11--11--11--11--11--11--11--11--11--11--11--11--|11--11--11--11--11--11--11--11--11--11--11--11--|
D |11--11--11--11--11--11--11--11--11--11--11--11--|9---9---9---9---9---9---9---9---9---9---9---9---|
A |9---9---9---9---9---9---9---9---9---9---9---9---|7---7---7---7---7---7---7---7---7---7---7---7---|
E |------------------------------------------------|------------------------------------------------|

   1   &   a   2   &   a   3   &   a   4   &   a    1   &   a   2   &   a   3   &   a   4   &   a
D |------------------------------------------------|------------------------------------------------|
A |19--0---17--19--17--0---19--0---17--19--17--0---|21--16--17--21--17--16--20--16--18--20--18--16--|
F |------------------------------------------------|------------------------------------------------|
C |11--11--11--11--11--11--11--11--11--11--11--11--|------------------------------------------------|
G |11--11--11--11--11--11--11--11--11--11--11--11--|6---6---6---6---6---6---6---6---6---6---6---6---|
D |9---9---9---9---9---9---9---9---9---9---9---9---|6---6---6---6---6---6---6---6---6---6---6---6---|
A |------------------------------------------------|4---4---4---4---4---4---4---4---4---4---4---4---|
E |------------------------------------------------|------------------------------------------------|

   1   &   a   2   &   a   3   &   a   4   &   a    1   &   a   2   &   a   3   &   a   4   &   a
D |------------------------------------------------|------------------------------------------------|
A |16--0---14--16--14--0---16--0---14--16--14--0---|14--0---12--14--12--0---14--0---12--14--12--0---|
F |------------------------------------------------|------------------------------------------------|
C |------------------------------------------------|------------------------------------------------|
G |11--11--11--11--11--11--11--11--11--11--11--11--|11--11--11--11--11--11--11--11--11--11--11--11--|
D |11--11--11--11--11--11--11--11--11--11--11--11--|9---9---9---9---9---9---9---9---9---9---9---9---|
A |9---9---9---9---9---9---9---9---9---9---9---9---|7---7---7---7---7---7---7---7---7---7---7---7---|
E |------------------------------------------------|------------------------------------------------|

   1   &   a   2   &   a   3   &   a   4   &   a    1   &   a   2   &   a   3   &   a   4   &   a
D |------------------------------------------------|------------------------------------------------|
A |12--0---11--12--11--0---12--0---11--12--11--0---|11--0---9---11--9---0---11--0---9---11--9---0---|
F |------------------------------------------------|------------------------------------------------|
C |9---9---9---9---9---9---9---9---9---9---9---9---|11--11--11--11--11--11--11--11--11--11--11--11--|
G |9---9---9---9---9---9---9---9---9---9---9---9---|11--11--11--11--11--11--11--11--11--11--11--11--|
D |7---7---7---7---7---7---7---7---7---7---7---7---|9---9---9---9---9---9---9---9---9---9---9---9---|
A |------------------------------------------------|------------------------------------------------|
E |------------------------------------------------|------------------------------------------------|

   1   &   a   2   &   a   3   &   a   4   &   a    1   &   a   2   &   a   3   &   a   4   &   a
D |------------------------------------------------|------------------------------------------------|
A |16--0---14--16--14--0---16--0---14--16--14--0---|17--0---16--17--16--0---17--0---16--17--16--0---|
F |------------------------------------------------|------------------------------------------------|
C |------------------------------------------------|------------------------------------------------|
G |11--11--11--11--11--11--11--11--11--11--11--11--|11--11--11--11--11--11--11--11--11--11--11--11--|
D |11--11--11--11--11--11--11--11--11--11--11--11--|9---9---9---9---9---9---9---9---9---9---9---9---|
A |9---9---9---9---9---9---9---9---9---9---9---9---|7---7---7---7---7---7---7---7---7---7---7---7---|
E |------------------------------------------------|------------------------------------------------|

   1   &   a   2   &   a   3   &   a   4   &   a    1   &   a   2   &   a   3   &   a   4   &   a
D |------------------------------------------------|------------------------------------------------|
A |19--0---17--19--17--0---19--0---17--19--17--0---|21--16--17--21--17--16--20--16--18--20--18--16--|
F |------------------------------------------------|------------------------------------------------|
C |11--11--11--11--11--11--11--11--11--11--11--11--|------------------------------------------------|
G |11--11--11--11--11--11--11--11--11--11--11--11--|6---6---6---6---6---6---6---6---6---6---6---6---|
D |9---9---9---9---9---9---9---9---9---9---9---9---|6---6---6---6---6---6---6---6---6---6---6---6---|
A |------------------------------------------------|4---4---4---4---4---4---4---4---4---4---4---4---|
E |------------------------------------------------|------------------------------------------------|

   1   &   a   2   &   a   3   &   a   4   &   a    1   &   a   2   &   a   3   &   a   4   &   a
D |------------------------------------------------|------------------------------------------------|
A |20--0---19--20--19--0---20--0---19--20--19--0---|24--19--20--24--20--19--23--19--20--23--20--19--|
F |------------------------------------------------|------------------------------------------------|
C |------------------------------------------------|------------------------------------------------|
G |7---7---7---7---7---7---7---7---7---7---7---7---|------------------------------------------------|
D |7---7---7---7---7---7---7---7---7---7---7---7---|9---9---9---9---9---9---6---6---6---6---6---6---|
A |5---5---5---5---5---5---5---5---5---5---5---5---|7---7---7---7---7---7---8---8---8---8---8---8---|
E |------------------------------------------------|------------------------------------------------|

[Breakdown]

   1 & a 2 & a 3 & a 4 & a  1 & a 2 & a 3 & a 4 & a 
D |------------------------|------------------------|
A |------------------------|------------------------|
F |------------------------|------------------------|
C |9-9-9-9-9-9-9-9-9-9-9-9-|9-9-9-9-9-9-9-9-9-9-9-9-|
G |9-9-9-9-9-9-9-9-9-9-9-9-|9-9-9-9-9-9-9-9-9-9-9-9-|
D |7-7-7-7-7-7-7-7-7-7-7-7-|7-7-7-7-7-7-7-7-7-7-7-7-|
A |------------------------|------------------------|
E |------------------------|------------------------|

    1   &   a   2   &   a   3   &   a   4   &   a    1   &   a   2   &   a   3   &   a   4   &   a
D |------------------------------------------------|------------------------------------------------|
A |------------------------------------------------|------------------------------------------------|
F |------------------------------------------------|------------------------------------------------|
C |15--15--15--15--15--15--15--15--15--15--15--15--|15--15--15--15--15--15--15--15--15--15--15--15--|
G |13--13--13--13--13--13--13--13--13--13--13--13--|13--13--13--13--13--13--13--13--13--13--13--13--|
D |11--11--11--11--11--11--11--11--11--11--11--11--|11--11--11--11--11--11--11--11--11--11--11--11--|
A |------------------------------------------------|------------------------------------------------|
E |------------------------------------------------|------------------------------------------------|

    1   &   a   2   &   a   3   &   a   4   &   a    1   &   a   2   &   a   3   &   a   4   &   a
D |------------------------------------------------|------------------------------------------------|
A |------------------------------------------------|------------------------------------------------|
F |------------------------------------------------|------------------------------------------------|
C |11--11--11--11--11--11--11--11--11--11--11--11--|11--11--11--11--11--11--11--11--11--11--11--11--|
G |9---9---9---9---9---9---9---9---9---9---9---9---|9---9---9---9---9---9---9---9---9---9---9---9---|
D |7---7---7---7---7---7---7---7---7---7---7---7---|7---7---7---7---7---7---7---7---7---7---7---7---|
A |------------------------------------------------|------------------------------------------------|
E |------------------------------------------------|------------------------------------------------|

    1   &   a   2   &   a   3   &   a   4   &   a    1   &   a   2   &   a   3   &   a   4   &   a
D |------------------------------------------------|------------------------------------------------|
A |------------------------------------------------|------------------------------------------------|
F |------------------------------------------------|------------------------------------10--10--10--|
C |13--13--13--13--13--13--13--13--13--13--13--13--|13--13--13--10--10--10--13--13--13--10--10--10--|
G |13--13--13--13--13--13--13--13--13--13--13--13--|13--13--13--10--10--10--13--13--13--8---8---8---|
D |11--11--11--11--11--11--11--11--11--11--11--11--|11--11--11--12--12--12--11--11--11--------------|
A |------------------------------------------------|------------------------------------------------|
E |------------------------------------------------|------------------------------------------------|

    1   &   a   2   &   a   3   &   a   4   &   a    1   &   a   2   &   a   3   &   a   4   &   a
D |------------------------------------------------|------------------------------------------------|
A |------------------------------------------------|------------------------------------------------|
F |11--11--11--11--11--11--11--11--11--11--11--11--|11--11--11--11--11--11--11--11--11--11--11--11--|
C |11--11--11--11--11--11--11--11--11--11--11--11--|11--11--11--11--11--11--11--11--11--11--11--11--|
G |9---9---9---9---9---9---9---9---9---9---9---9---|9---9---9---9---9---9---9---9---9---9---9---9---|
D |------------------------------------------------|------------------------------------------------|
A |------------------------------------------------|------------------------------------------------|
E |------------------------------------------------|------------------------------------------------|

    1   &   a   2   &   a   3   &   a   4   &   a    1   &   a   2   &   a   3   &   a   4   &   a
D |------------------------------------------------|------------------------------------------------|
A |------------------------------------------------|------------------------------------------------|
F |17--17--17--17--17--17--17--17--17--17--17--17--|13--13--13--13--13--13--13--13--13--13--13--13--|
C |15--15--15--15--15--15--15--15--15--15--15--15--|15--15--15--15--15--15--15--15--15--15--15--15--|
G |13--13--13--13--13--13--13--13--13--13--13--13--|13--13--13--13--13--13--13--13--13--13--13--13--|
D |------------------------------------------------|------------------------------------------------|
A |------------------------------------------------|------------------------------------------------|
E |------------------------------------------------|------------------------------------------------|

    1   &   a   2   &   a   3   &   a   4   &   a    1   &   a   2   &   a   3   &   a   4   &   a
D |------------------------------------------------|------------------------------------------------|
A |------------------------------------------------|------------------------------------------------|
F |13--13--13--13--13--13--13--13--13--13--13--13--|13--13--13--13--13--13--13--13--13--13--13--13--|
C |11--11--11--11--11--11--11--11--11--11--11--11--|11--11--11--11--11--11--11--11--11--11--11--11--|
G |9---9---9---9---9---9---9---9---9---9---9---9---|9---9---9---9---9---9---9---9---9---9---9---9---|
D |------------------------------------------------|------------------------------------------------|
A |------------------------------------------------|------------------------------------------------|
E |------------------------------------------------|------------------------------------------------|

    1   &   a   2   &   a   3   &   a   4   &   a    1   &   a   2   &   a   3   &   a   4   &   a
D |------------------------------------------------|------------------------------------------------|
A |------------------------------------------------|------------------------------------------------|
F |13--13--13--13--13--13--13--13--13--13--13--13--|13--13--13--13--13--13--13--13--13--13--11--11--|
C |13--13--13--13--13--13--13--13--13--13--13--13--|13--13--13--13--13--13--13--13--13--13--11--11--|
G |11--11--11--11--11--11--11--11--11--11--11--11--|11--11--11--11--11--11--11--11--11--11--9---9---|
D |------------------------------------------------|------------------------------------------------|
A |------------------------------------------------|------------------------------------------------|
E |------------------------------------------------|------------------------------------------------|

[Chorus 3]


   1   &   a   2   &   a   3   &   a   4   &   a    1   &   a   2   &   a   3   &   a   4   &   a
D |------------------------------------------------|------------------------------------------------|
A |11--0---9---11--9---0---11--0---9---11--9---0---|11--0---9---11--9---0---11--0---9---11--9---0---|L.Guitar
F |------------------------------------------------|------------------------------------------------|
C |------------------------------------------------|------------------------------------------------|
G |------------------------------------------------|------------------------------------------------|R.Guitar
D |7---7---7---7---7---7---7---7---7---7---7---7---|7---7---7---7---7---7---7---7---7---7---7---7---|R.Guitar
A |5---5---5---5---5---5---5---5---5---5---5---5---|5---5---5---5---5---5---5---5---5---5---5---5---|R.Guitar
E |------------------------------------------------|------------------------------------------------|
  
   1   &   a   2   &   a   3   &   a   4   &   a    1   &   a   2   &   a   3   &   a   4   &   a
D |------------------------------------------------|------------------------------------------------|
A |12--0---11--12--11--0---12--0---11--12--11--0---|12--0---11--12--11--0---12--0---11--12--11--0---|
F |------------------------------------------------|------------------------------------------------|
C |------------------------------------------------|------------------------------------------------|
G |------------------------------------------------|------------------------------------------------|
D |11--11--11--11--11--11--11--11--11--11--11--11--|11--11--11--11--11--11--11--11--11--11--11--11--|
A |9---9---9---9---9---9---9---9---9---9---9---9---|9---9---9---9---9---9---9---9---9---9---9---9---|
E |------------------------------------------------|------------------------------------------------|

   1   &   a   2   &   a   3   &   a   4   &   a    1   &   a   2   &   a   3   &   a   4   &   a
D |------------------------------------------------|------------------------------------------------|
A |11--0---9---11--9---0---11--0---9---11--9---0---|11--0---9---11--9---0---11--0---9---11--9---0---|
F |------------------------------------------------|------------------------------------------------|
C |------------------------------------------------|------------------------------------------------|
G |------------------------------------------------|------------------------------------------------|
D |7---7---7---7---7---7---7---7---7---7---7---7---|7---7---7---7---7---7---7---7---7---7---7---7---|
A |5---5---5---5---5---5---5---5---5---5---5---5---|5---5---5---5---5---5---5---5---5---5---5---5---|
E |------------------------------------------------|------------------------------------------------|

   1   &   a   2   &   a   3   &   a   4   &   a    1   &   a   2   &   a   3   &   a   4   &   a
D |------------------------------------------------|------------------------------------------------|
A |12--0---11--12--11--0---12--0---11--12--11--0---|12--0---11--12--11--0---12--0---11--12--11--0---|
F |------------------------------------------------|------------------------------------------------|
C |------------------------------------------------|------------------------------------------------|
G |------------------------------------------------|------------------------------------8---8---8---|
D |11--11--11--11--11--11--11--11--11--11--11--11--|11--11--11--10--10--10--11--11--11--6---6---6---|
A |9---9---9---9---9---9---9---9---9---9---9---9---|9---9---9---8---8---8---9---9---9---------------|
E |------------------------------------------------|------------------------------------------------|

   1   &   a   2   &   a   3   &   a   4   &   a    1   &   a   2   &   a   3   &   a   4   &   a
D |------------------------------------------------|------------------------------------------------|
A |12--0---12--14--12--0---12--0---12--14--12--0---|12--0---12--14--12--0---12--0---12--14--12--0---|
F |------------------------------------------------|------------------------------------------------|
C |------------------------------------------------|------------------------------------------------|
G |9---9---9---9---9---9---9---9---9---9---9---9---|9---9---9---9---9---9---9---9---9---9---9---9---|
D |7---7---7---7---7---7---7---7---7---7---7---7---|7---7---7---7---7---7---7---7---7---7---7---7---|
A |------------------------------------------------|------------------------------------------------|
E |------------------------------------------------|------------------------------------------------|

   1   &   a   2   &   a   3   &   a   4   &   a    1   &   a   2   &   a   3   &   a   4   &   a
D |------------------------------------------------|------------------------------------------------|
A |14--0---14--16--14--0---14--0---14--16--14--0---|16--0---16--17--16--0---16--0---16--17--16--0---|
F |------------------------------------------------|------------------------------------------------|
C |------------------------------------------------|------------------------------------------------|
G |------------------------------------------------|------------------------------------------------|
D |13--13--13--13--13--13--13--13--13--13--13--13--|13--13--13--13--13--13--13--13--13--13--13--13--|
A |11--11--11--11--11--11--11--11--11--11--11--11--|11--11--11--11--11--11--11--11--11--11--11--11--|
E |------------------------------------------------|------------------------------------------------|

   1   &   a   2   &   a   3   &   a   4   &   a    1   &   a   2   &   a   3   &   a   4   &   a
D |------------------------------------------------|------------------------------------------------|
A |12--0---12--14--12--0---12--0---12--14--12--0---|12--0---12--14--12--0---12--0---12--14--12--0---|
F |------------------------------------------------|------------------------------------------------|
C |------------------------------------------------|------------------------------------------------|
G |9---9---9---9---9---9---9---9---9---9---9---9---|9---9---9---9---9---9---9---9---9---9---9---9---|
D |7---7---7---7---7---7---7---7---7---7---7---7---|7---7---7---7---7---7---7---7---7---7---7---7---|
A |------------------------------------------------|------------------------------------------------|
E |------------------------------------------------|------------------------------------------------|

   1   &   a   2   &   a   3   &   a   4   &   a    1   &   a   2   &   a   3   &   a   4   &   a
D |------------------------------------------------|------------------------------------------------|
A |11--0---11--12--11--0---11--0---11--12--11--0---|11--0---11--12--11--0---11--0---11--12--11--0---|
F |------------------------------------------------|------------------------------------------------|
C |------------------------------------------------|------------------------------------------------|
G |11--11--11--11--11--11--11--11--11--11--11--11--|11--11--11--11--11--11--11--11--11--11--11--11--|
D |9---9---9---9---9---9---9---9---9---9---9---9---|9---9---9---9---9---9---9---9---9---9---9---9---|
A |------------------------------------------------|------------------------------------------------|
E |------------------------------------------------|------------------------------------------------| x2

[Outro]

   1   &   a   2   &   a   3   &   a   4   &   a    1   &   a   2   &   a   3   &   a   4   &   a
D |------------------------------------------------|------------------------------------------------|
A |------------------------------------------------|------------------------------------------------|
F |------------------------------------------------|------------------------------------------------|
C |------------------------------------------------|------------------------------------------------|
G |----------------------------14------------------|------------------------------------------------|
D |------------14------------------------------17--|------------16----------------17------------15--|
A |0---11--12------0---12--14------0---14--15------|0---15--17------0---14--15------0---12--14------|
E |------------------------------------------------|------------------------------------------------|

   1   &   a   2   &   a   3   &   a   4   &   a    1   &   a   2   &   a   3   &   a   4   &   a
D |------------------------------------------------|------------------------------------------------|
A |------------------------------------------------|------------------------------------------------|
F |------------------------------------------------|------------------------------------------------|
C |------------------------------------------------|------------------------------------------------|
G |----------------------------14--------------16--|------------17--------------13------13--14--16--|
D |------------14----------------------------------|0---14--15----------14--16----------------------|
A |0---11--12------0---12--14------0---14--15------|------------------------------------------------|
E |------------------------------------------------|----------------0---------------0---------------| x2

************************************

| (n) Ghost note
| PM  Palm mute

************************************
Suggest correction
Give kudos to tab author, rate the tab!
1 2 3 4 5
comments
print report bad tab
guest
You may want to rate the tab now too:
select rating
Wanna post a correction for this tab? Suggest correction