Oops, an error
Loading. Please wait.

Pareidolia Tab

version 1
version 1

Whole song

  • This is the tab for Kevin Sherwood's Pareidolia, a... Show more
10 views 1 this week
no commentswrite comment
1 2 3 4 5
3 more votes to show rating
add to favorites
launch autoscroll
font size
0
reset
how to read this tab
guitar tuner
Autoscroll
slow
fast
+/-
esc
set tempo
stop
Help us to improve Ultimate-Guitar.com Take our survey!
×
Author
Difficulty
Tuning
advanced
D G C F A D
About this tab version
This is the tab for Kevin Sherwood's Pareidolia, a song mainly known as the Call of Duty: Black Ops Zombies easter egg song for the Zombies map "Shangri-La". Like all of Kevin's songs, they are made to be played on an 8 string guitar. The creator of this tab has a YouTube channel called Jonny Hudson and did a cover of Pareidolia with an 8 string guitar so check it out if you need visual aid with the tab. The link to his channel is ( https://www.youtube.com/channel/UCZIOxU8t8DGVsKitoWRWIFQ ) and the link to the Pareidolia cover is ( https://www.youtube.com/watch?v=O7YAHQQQkcQ ). Be sure to listen to the covers with headphones on. Was this info helpful? Yes No
[Intro]
   1 e & a 2 e & a 3 e & a 4 e & a  1 e & a 2 e & a 3 e & a 4 e & a 
D |--------------------------------|--------------------------------|
A |--------------------------------|--------------------------------|
F |--------------------------------|--------------------------------|
C |--------------------------------|--------------------------------|
G |--------------------------------|--------------------------------|
D |1-0-2-0-3-2-0-1-0-2-0-3-2-0-1-4-|1-0-2-0-3-2-0-1-0-2-0-3---------|
A |--------------------------------|--------------------------------|
C#|--------------------------------|--------------------------------|

   1 e & a 2 e & a 3 e & a 4 e & a  1 e & a 2 e & a 3 e & a 4 e & a 
D |--------------------------------|--------------------------------|
A |--------------------------------|--------------------------------|
F |--------------------------------|--------------------------------|
C |--------------------------------|--------------------------------|
G |--------------------------------|------------------------------4-|
D |--------------------------------|--------------------------------|
A |1-0-2-0-3-2-0-1-0-2-0-3-2-0-1-4-|1-0-2-0-3-2-0-1-0-2-0-3-2-0-1---|
C#|--------------------------------|--------------------------------| x4

   1 e & a 2 e & a 3 e & a 4 e & a  1 e & a 2 e & a 3 e & a 4 e & a 
D |--------------------------------|--------------------------------|
A |--------------------------------|--------------------------------|
F |--------------------------------|--------------------------------|
C |--------------------------------|--------------------------------|
G |------5-------------------------|------5-------4-3-----2---------|
D |4-------4-----------------5-----|4-------4---------4-----3-----5-|
A |--3-2-----3-2-4-3-2-5-4-3---4-3-|--3-2-----3-2-------5-----4-3---|
C#|--------------------------------|--------------------------------|

   1 e & a 2 e & a 3 e & a 4 e & a  1 e & a 2 e & a 3 e & a 4 e & a 
D |--------------------------------|--------------------------------|
A |--------------------------------|--------------------------------|
F |--------------------------------|--------------------------------|
C |--------------------------------|--------------------------------|
G |------5-------------------------|------5-------5-5---------------|
D |4-------4-----------------5-----|4-------4---------4-------------|
A |--3-2-----3-2-4-3-2-5-4-3---4-3-|--3-2-----3-2-------5-4-3-2-1-0-|
C#|--------------------------------|--------------------------------|

   1 e & a 2 e & a 3 e & a 4 e & a  1 e & a 2 e & a 3 e & a 4 e & a 
D |--------------------------------|--------------------------------|
A |--------------------------------|--------------------------------|
F |--------------------------------|--------------------------------|
C |--------------------------------|--------------------------------|
G |--------------------------------|--------------------------------|
D |4-4-4-4---4-4-4-5-5-5-3-3-3-5-5-|4-4-4-4---4-4-4-7-7-7-6-6-6-5-5-|
A |2-2-2-2---2-2-2-3-3-3-1-1-1-3-3-|2-2-2-2---2-2-2-5-5-5-4-4-4-3-3-|
C#|--------------------------------|--------------------------------|
   PM...............................................................

   1 e & a 2 e & a 3 e & a 4 e & a  1 e & a 2 e & a 3 e & a 4 e & a 
D |--------------------------------|--------------------------------|
A |--------------------------------|--------------------------------|
F |--------------------------------|--------------------------------|
C |--------------------------------|--------------------------------|
G |--------------------------------|--------------------------------|
D |4-4-4-4---4-4-4-5-5-5-3-3-3-5-5-|4-4-4-4---4-4-4-5-5-5-----------|
A |2-2-2-2---2-2-2-3-3-3-1-1-1-3-3-|2-2-2-2---2-2-2-------5-4-4-3-3-|
C#|--------------------------------|--------------------------------|
   PM...............................................................

[Verse 1]

   1 e & a 2 e & a 3 e & a 4 e & a  1 e & a 2 e & a 3 e & a 4 e & a 
D |--------------------------------|--------------------------------|
A |--------------------------------|--------------------------------|
F |--------------------------------|--------------------------------|
C |--------------------------------|--------------------------------|
G |--------------------------------|--------------------------------|
D |4-4-4-4---4-4-4-5-5-5-3-3-3-5-5-|4-4-4-4---4-4-4-7-7-7-6-6-6-5-5-|
A |2-2-2-2---2-2-2-3-3-3-1-1-1-3-3-|2-2-2-2---2-2-2-5-5-5-4-4-4-3-3-|
C#|--------------------------------|--------------------------------|
   PM...............................................................

   1 e & a 2 e & a 3 e & a 4 e & a  1 e & a 2 e & a 3 e & a 4 e & a 
D |--------------------------------|--------------------------------|
A |--------------------------------|--------------------------------|
F |--------------------------------|--------------------------------|
C |--------------------------------|--------------------------------|
G |--------------------------------|--------------------------------|
D |4-4-4-4---4-4-4-5-5-5-3-3-3-5-5-|4-4-4-4---4-4-4-5-5-5-----------|
A |2-2-2-2---2-2-2-3-3-3-1-1-1-3-3-|2-2-2-2---2-2-2-------5-4-4-3-3-|
C#|--------------------------------|--------------------------------| x2
   PM...............................................................

[Pre-Chorus 1]

   1 e & a 2 e & a 3 e & a 4 e & a  1 e & a 2 e & a 3 e & a 4 e & a 
D |--------------------------------|--------------------------------|
A |--------------------------------|--------------------------------|
F |--------------------------------|--------------------------------|
C |--------------------------------|--------------------------------|
G |--------------------------------|--------------------------------|
D |4-----5-----5---2-----5-----4---|7-----4-----5---2-----5-----4---|
A |2-----3-----3---0-----3-----2---|5-----2-----3---0-----3-----2---|
C#|--------------------------------|--------------------------------|

   1 e & a 2 e & a 3 e & a 4 e & a  1 e & a 2 e & a 3 e & a 4 e & a 
D |--------------------------------|--------------------------------|
A |--------------------------------|--------------------------------|
F |--------------------------------|--------------------------------|
C |--------------------------------|--------------------------------|
G |4-----3-------------------------|--------------------------------|
D |2-----1-----5---2-----5-----4---|4-----5-----5---2---2-5---5-4---|
A |------------3---0-----3-----2---|2-----3-----3---0---0-3---3-2---|
C#|--------------------------------|--------------------------------| Short pause


[Chorus 1]

   1 e & a 2 e & a 3 e & a 4 e & a  1 e & a 2 e & a 3 e & a 4 e & a 
D |--------------------------------|--------------------------------|
A |--------------------------------|--------------------------------|
F |--------------------------------|--------------------------------|
C |--------------------------------|--------------------------------|
G |--------------------------------|--------------------------------|
D |6---6-6---6-6---6-6-----6-6-6-6-|5---5-5---5-5---5-5-----5-5-5-5-|
A |4---4-4---4-4---4-4---4-4-4-4-4-|3---3-3---3-3---3-3---3-3-3-3-3-|
C#|--------------------------------|--------------------------------|
                         PM                               PM

  1 e & a 2 e & a 3 e & a 4 e & a  1 e & a 2 e & a 3 e & a 4 e & a 
D |--------------------------------|--------------------------------|
A |--------------------------------|--------------------------------|
F |--------------------------------|--------------------------------|
C |--------------------------------|--------------------------------|
G |--------------------------------|--------------------------------|
D |2---2-2---2-2---2-2-------------|8---8-8---8-8---8-8---8-8-8-8-8-|
A |0---0-0---0-0---0-0---0-0-7-8-7-|6---6-6---6-6---6-6---6-6-6-6-6-|
C#|--------------------------------|--------------------------------| x2
                         PM........

[Pre-Verse]


   1 e & a 2 e & a 3 e & a 4 e & a  1 e & a 2 e & a 3 e & a 4 e & a 
D |--------------------------------|--------------------------------|
A |--------------------------------|--------------------------------|
F |--------------------------------|--------------------------------|
C |--------------------------------|--------------------------------|
G |--------------------------------|------------------------------4-|
D |1-2-1-0-3-2-0-------------------|--------------------------------|
A |--------------1-0-2-0-3-2-0-1-4-|1-0-2-0-3-2-0-1-0-2-0-3-2-0-1---|
C#|--------------------------------|--------------------------------|

   1 e & a 2 e & a 3 e & a 4 e & a  1 e & a 2 e & a 3 e & a 4 e & a 
D |--------------------------------|--------------------------------|
A |--------------------------------|--------------------------------|
F |--------------------------------|--------------------------------|
C |--------------------------------|--------------------------------|
G |--------------------------------|--------------------------------|
D |--------------------------------|--------------------------------|
A |1-0-2-0-3-2-0-1-0-2-0-3-2-0-1-4-|1-0-2-0-3-2-0-------------------|
C#|--------------------------------|--------------3b5-3b5-3b5-br3---|

[Verse 2]

   1 e & a 2 e & a 3 e & a 4 e & a  1 e & a 2 e & a 3 e & a 4 e & a 
D |--------------------------------|--------------------------------|
A |--------------------------------|--------------------------------|
F |--------------------------------|--------------------------------|
C |--------------------------------|--------------------------------|
G |--------------------------------|--------------------------------|
D |4-4-4-4---4-4-4-5-5-5-3-3-3-5-5-|4-4-4-4---4-4-4-7-7-7-6-6-6-5-5-|
A |2-2-2-2---2-2-2-3-3-3-1-1-1-3-3-|2-2-2-2---2-2-2-5-5-5-4-4-4-3-3-|
C#|--------------------------------|--------------------------------|
   PM...............................................................

   1 e & a 2 e & a 3 e & a 4 e & a  1 e & a 2 e & a 3 e & a 4 e & a 
D |--------------------------------|--------------------------------|
A |--------------------------------|--------------------------------|
F |--------------------------------|--------------------------------|
C |--------------------------------|--------------------------------|
G |--------------------------------|--------------------------------|
D |4-4-4-4---4-4-4-5-5-5-3-3-3-5-5-|4-4-4-4---4-4-4-5-5-5-----------|
A |2-2-2-2---2-2-2-3-3-3-1-1-1-3-3-|2-2-2-2---2-2-2-------5-4-4-3-3-|
C#|--------------------------------|--------------------------------|
   PM...............................................................


[Pre-Chorus 2]

   1 e & a 2 e & a 3 e & a 4 e & a  1 e & a 2 e & a 3 e & a 4 e & a 
D |--------------------------------|--------------------------------|
A |--------------------------------|--------------------------------|
F |--------------------------------|--------------------------------|
C |--------------------------------|--------------------------------|
G |--------------------------------|--------------------------------|
D |4-----5-----5---2-----5-----4---|7-----4-----5---2-----5-----4---|
A |2-----3-----3---0-----3-----2---|5-----2-----3---0-----3-----2---|
C#|--------------------------------|--------------------------------|

   1 e & a 2 e & a 3 e & a 4 e & a  1 e & a 2 e & a
D |--------------------------------|----------------|
A |--------------------------------|----------------|
F |--------------------------------|----------------|
C |--------------------------------|----------------|
G |4-----3-------------------------|----------------|
D |2-----1-----5---2-----5-----4---|4-----5-----5---|
A |------------3---0-----3-----2---|2-----3-----3---|
C#|--------------------------------|----------------|

   1 e & a 2 e & a 3 e & a 4 e & a
D |--------------------------------|
A |--------------------------------|
F |--------------------------------|
C |--------------------------------|
G |--------------------------------|
D |2-----2-----2-----2-----2---2---|
A |0-----0-----0-----0-----0---0---|
C#|--------------------------------|
                           PM  PM

[Chorus 2]

   1 e & a 2 e & a 3 e & a 4 e & a  1 e & a 2 e & a 3 e & a 4 e & a 
D |--------------------------------|--------------------------------|
A |--------------------------------|--------------------------------|
F |--------------------------------|--------------------------------|
C |--------------------------------|--------------------------------|
G |--------------------------------|--------------------------------|
D |6---6-6---6-6---6-6-----6-6-6-6-|5---5-5---5-5---5-5-----5-5-5-5-|
A |4---4-4---4-4---4-4---4-4-4-4-4-|3---3-3---3-3---3-3---3-3-3-3-3-|
C#|--------------------------------|--------------------------------|
                         PM                               PM

  1 e & a 2 e & a 3 e & a 4 e & a  1 e & a 2 e & a 3 e & a 4 e & a 
D |--------------------------------|--------------------------------|
A |--------------------------------|--------------------------------|
F |--------------------------------|--------------------------------|
C |--------------------------------|--------------------------------|
G |--------------------------------|--------------------------------|
D |2---2-2---2-2---2-2-------------|8---8-8---8-8---8-8---8-8-8-8-8-|
A |0---0-0---0-0---0-0---0-0-7-8-7-|6---6-6---6-6---6-6---6-6-6-6-6-|
C#|--------------------------------|--------------------------------| x2
                         PM........

[Pre-Solo]

   1 e & a 2 e & a 3 e & a 4 e & a  1 e & a 2 e & a 3 e & a 4 e & a 
D |--------------------------------|--------------------------------|
A |--------------------------------|--------------------------------|
F |--------------------------------|--------------------------------|
C |--------------------------------|--------------------------------|
G |--------------------------------|--------------------------------|
D |2---2-2---2-2---2-2---2-2---2-2-|6---6-6---6-6---6-6---6-6---6-6-|
A |0---0-0---0-0---0-0---0-0---0-0-|4---4-4---4-4---4-4---4-4---4-4-|
C#|--------------------------------|--------------------------------|
       PM    PM    PM    PM             PM    PM    PM    PM

   1 e & a 2 e & a 3 e & a 4 e & a  1 e & a 2 e & a 3 e & a 4 e & a 
D |--------------------------------|--------------------------------|
A |--------------------------------|--------------------------------|
F |--------------------------------|--------------------------------|
C |--------------------------------|--------------------------------|
G |4---4-4---4-4---4-4---4-4---4///|8---8-8---8-8---8-8-------------|
D |2---2-2---2-2---2-2---2-2---2///|6---6-6---6-6---6-6---6-7-6-----|
A |--------------------------------|----------------------------7-4-|
C#|--------------------------------|--------------------------------|
       PM    PM    PM    PM             PM    PM    PM

Repeat twice through guitar solo, but completely palm-muted.

[Guitar Solo]

   1   e   &   a   2   e   &   a   3   e   &   a   4   e   &   a
D |--------------------------------------------------------14------|
A |11~~~~~~~~~~~~~~~~~~~~~~12--------------14------12--------------|
F |----------------------------------------------------------------|
C |----------------------------------------------------------------|
G |----------------------------------------------------------------|
D |----------------------------------------------------------------|
A |----------------------------------------------------------------|
C#|----------------------------------------------------------------|
   
   1   e   &   a   2   e   &   a   3   e   &   a   4   e   &   a
D |13b14-br13--11--------------------------------------------------|
A |----------------12--11~~~~~~~~~~~~~~~~~~~~~~~~~~\\\\\\\\--------|
F |----------------------------------------------------------------|
C |----------------------------------------------------------------|
G |----------------------------------------------------------------|
D |----------------------------------------------------------------|
A |----------------------------------------------------------------|
C#|----------------------------------------------------------------|

   1   e   &   a   2   e   &   a   3   e   &   a   4   e   &   a
D |----------------------------------------------------------------|
A |----------------------------------------------------------------|
F |------//10~~~~~~~~~~~~~~11-p10--13-p10--11-p10--10b11-br10------|
C |------------------------------------------------------------11--|
G |----------------------------------------------------------------|
D |----------------------------------------------------------------|
A |----------------------------------------------------------------|
C#|----------------------------------------------------------------|

   1   e   &   a   2   e   &   a   3   e   &   a   4   e   &   a
D |--------------------------------------------------------11h13h14|
A |------------------------------------------------11h12h14--------|
F |----11------13--11--10~~~~~~~~~~~~~~~~~~10h11h13----------------|
C |----------------------------------------------------------------|
G |13--------------------------------------------------------------|
D |----------------------------------------------------------------|
A |----------------------------------------------------------------|
C#|----------------------------------------------------------------|
                                           play as sextuplets

   1   e   &   a   2   e   &   a   3   e   &   a   4   e   &   a
D |14~~~~~~~~~~~~~~~~~~~~~~13------------------------------13b14---|
A |----------------------------------------14----------------------|
F |----------------------------------------------------------------|
C |----------------------------------------------------------------|
G |----------------------------------------------------------------|
D |----------------------------------------------------------------|
A |----------------------------------------------------------------|
C#|----------------------------------------------------------------|

   1   e   &   a   2   e   &   a   3   e   &   a   4   e   &   a
D |------br13------13~~~~~~~~~~~~~~--------------------------------|
A |--------------------------------14----------------------14//16~~|
F |----------------------------------------------------------------|
C |----------------------------------------------------------------|
G |----------------------------------------------------------------|
D |----------------------------------------------------------------|
A |----------------------------------------------------------------|
C#|----------------------------------------------------------------|

   1   e   &   a   2    &     a    3   e   &   a   4   e   &   a
D |----------------14---16----18---18------18~~~~~~~~~~~~~~16------|
A |~~~~~~~~~~~~~~~~------------------------------------------------|
F |----------------------------------------------------------------|
C |----------------------------------------------------------------|
G |----------------------------------------------------------------|
D |----------------------------------------------------------------|
A |----------------------------------------------------------------|
C#|----------------------------------------------------------------|
                Beat 2 played as triplets

   1   e   &   a   2   e   &   a   3   e   &   a   4   e   &   a
D |14--------------------------------------------------------------|
A |--------16------16/18~~~~~~~~~~~~~~~~~~~~~~~~~~~~~~~~~~~~~~~~~~~|
F |----------------------------------------------------------------|
C |----------------------------------------------------------------|
G |----------------------------------------------------------------|
D |----------------------------------------------------------------|
A |----------------------------------------------------------------|
C#|----------------------------------------------------------------|

[Breakdown]

   1 e & a 2 e & a 3 e & a 4 e & a  1 e & a 2 e & a 3 e & a 4 e & a 
D |--------------------------------|--------------------------------|
A |--------------------------------|--------------------------------|
F |--------------------------------|--------------------------------|
C |--------------------------------|--------------------------------|
G |--------------------------------|--------------------------------|
D |--------------------------------|--------------------------------|
A |--------------------------------|--------------------------------|
C#|0---0-2---2---2-0-0-2---2---2-2-|0---0-3---3---3-0-0-3---3---3-3-|
   PM...............................................................

   1 e & a 2 e & a 3 e & a 4 e & a  1 e & a 2 e & a 3 e & a 4 e & a 
D |--------------------------------|--------------------------------|
A |--------------------------------|--------------------------------|
F |--------------------------------|--------------------------------|
C |--------------------------------|--------------------------------|
G |--------------------------------|--------------------------------|
D |--------------------------------|--------------------------------|
A |--------------------------------|--------------------------------|
C#|0---0-5---5---5-0-0-5---5---5-5-|0---0-3---3---3-0-5-3-2-3-2-0-2-|
   PM...............................................................


   1 e & a 2 e & a 3 e & a 4 e & a  1 e & a 2 e & a 3 e & a 4 e & a 
D |--------------------------------|--------------------------------|
A |--------------------------------|--------------------------------|
F |--------------------------------|--------------------------------|
C |--------------------------------|--------------------------------|
G |--------------------------------|--------------------------------|
D |--------------------------------|--------------------------------|
A |--------------------------------|--------------------------------|
C#|0---0-2---2---2-0-0-2---2---2-2-|0---0-3---3---3-0-0-3---3---3-3-|
   PM...............................................................


   1 e & a 2 e & a 3 e & a 4 e & a  1 e & a 2 e & a 3 e & a 4 e & a 
D |--------------------------------|--------------------------------|
A |--------------------------------|--------------------------------|
F |--------------------------------|--------------------------------|
C |--------------------------------|--------------------------------|
G |--------------------------------|--------------------------------|
D |--------------------------------|--------------------------------|
A |--------------------------------|--------------------------------|
C#|0---0-2---2---2-0-0-2---2---2-2-|0---0-3---3---3-0-0-3---3---3-3-|
   PM...............................................................

   1 e & a 2 e & a 3 e & a 4 e & a  1 e & a 2 e & a 3 e & a 4 e & a 
D |----7---------------------------|----7---------------------------|Lead Guitar
A |11------------------------------|9-------------------------------|Lead Guitar
F |--------------------------------|--------------------------------|
C |--------------------------------|--------------------------------|
G |--------------------------------|--------------------------------|
D |------1~~~~~~~~~----1~~~~~~~~~~~|------2~~~~~~~~~----2~~~~~~~~~~~|Rhythm Guitar
A |--------------------------------|--------------------------------|
C#|0-0-0-----------0-0-------------|0-0-0-----------0-0-------------|Rhythm Guitar
   PM...           PM..             PM...           PM..             Rhythm Guitar
   Let lead guitar ring for dissonant clashing of notes.             Lead Guitar

   1 e & a 2 e & a 3 e & a 4 e & a  1 e & a 2 e & a 3 e & a 4 e & a 
D |----7---------------------------|----6---------------------------|
A |7-------------------------------|6-------------------------------|
F |--------------------------------|--------------------------------|
C |--------------------------------|--------------------------------|
G |--------------------------------|--------------------------------|
D |------4~~~~~~~~~----4~~~~~~~~~~~|------2~~~~~~~~~----2~~~~~~~~~~~|
A |--------------------------------|--------------------------------|
C#|0-0-0-----------0-0-------------|0-0-0-----------0-0-------------| x2
   PM...           PM..             PM...           PM..

   1 e & a 2 e & a 3 e & a 4 e & a  1 e & a 2 e & a 3 e & a 4 e & a 
D |----7-------7-------7-------7---|----11------11------11------11--|
A |11------11------11------11------|15------15------15------15------|
F |--------------------------------|--------------------------------|
C |--------------------------------|--------------------------------|
G |--------------------------------|--------------------------------|
D |------1~~~----------1~~~~~------|------2~~~----------2~~~~~------|
A |--------------------------------|--------------------------------|
C#|0-0-0-----0-0-0-0-0-------0-0-0-|0-0-0-----0-0-0-0-0-------0-0-0-|
   PM....    ..........      .............    ..........      ......

   1 e & a 2 e & a 3 e & a 4 e & a  1 e & a 2 e & a 3 e & a 4 e & a 
D |----14------14------14------14--|----14------14------14------14--|
A |18------18------18------18------|16------16------16------16------|
F |--------------------------------|--------------------------------|
C |--------------------------------|--------------------------------|
G |--------------------------------|--------------------------------|
D |------4~~~----------4~~~~~------|------2~~~----------2~~~~~------|
A |--------------------------------|--------------------------------|
C#|0-0-0-----0-0-0-0-0-------0-0-0-|0-0-0-----0-0-0-0-0-------0-0-0-|
   PM....    ..........      .............    ..........      ......

   1 e & a 2 e & a 3 e & a 4 e & a  1 e & a 2 e & a 3 e & a 4 e & a 
D |----7-------7-------7-------7---|----11------11------11------11--|
A |11------11------11------11------|15------15------15------15------|
F |--------------------------------|--------------------------------|
C |--------------------------------|--------------------------------|
G |--------------------------------|--------------------------------|
D |------1~~~----------1~~~~~------|------2~~~----------2~~~~~------|
A |--------------------------------|--------------------------------|
C#|0-000-----0-0-000-0-------0-0-0-|0-0-0-----0-0-0-0-0-------0-0-0-|
   PM....    ..........      .............    ..........      ......

   1 e & a 2 e & a 3 e & a 4 e & a  1 e & a 2 e & a 3 e & a 4 e & a 
D |----14------14------14------14--|----19------19------19------19--|
A |18------18------18------18------|23------23------23------23------|
F |--------------------------------|--------------------------------|
C |--------------------------------|--------------------------------|
G |--------------------------------|--------------------------------|
D |------4~~~----------4~~~~~------|------2~~~----------2~~~~~------|
A |--------------------------------|--------------------------------|
C#|0-000-----0-0-000-0-------0-0-0-|0-0-0-----0-0-0-0-0-------000-0-|
   PM....    ..........      .............    ..........      ......

   1 e & a 2 e & a 3 e & a 4 e & a
D |----19------19------19----------|
A |23------23------23------23------|
F |--------------------------------|
C |--------------------------------|
G |--------------------------------|
D |6-6-6-6-6-6-6-6-6-6-6-6-6-6-6---|
A |4-4-4-4-4-4-4-4-4-4-4-4-4-4-4---|
C#|0-0-0-0-0-0-0-0-0-0-0-0-0-0-0---|
   Crescendo for rhythm guitar

[Chorus 3]

   1 e & a 2 e & a 3 e & a 4 e & a  1 e & a 2 e & a 3 e & a 4 e & a 
D |--------------------------------|--------------------------------|
A |--------------------------------|--------------------------------|
F |--------------------------------|--------------------------------|
C |--------------------------------|--------------------------------|
G |--------------------------------|--------------------------------|
D |6---6-6---6-6---6-6-----6-6-6-6-|5---5-5---5-5---5-5-----5-5-5-5-|
A |4---4-4---4-4---4-4---4-4-4-4-4-|3---3-3---3-3---3-3---3-3-3-3-3-|
C#|--------------------------------|--------------------------------|
                         PM                               PM

  1 e & a 2 e & a 3 e & a 4 e & a  1 e & a 2 e & a 3 e & a 4 e & a 
D |--------------------------------|--------------------------------|
A |--------------------------------|--------------------------------|
F |--------------------------------|--------------------------------|
C |--------------------------------|--------------------------------|
G |--------------------------------|--------------------------------|
D |2---2-2---2-2---2-2-------------|8---8-8---8-8---8-8---8-8-8-8-8-|
A |0---0-0---0-0---0-0---0-0-7-8-7-|6---6-6---6-6---6-6---6-6-6-6-6-|
C#|--------------------------------|--------------------------------| x4
                         PM........

For the outro, repeat chorus until decrescendo is finished for for guitar and it cannot be heard.

************************************

| h   Hammer-on
| p   Pull-off
| b   Bend
| br  Bend release
| /   Slide up
| \   Slide down
| ~   Vibrato
| PM  Palm mute

************************************
Suggest correction
Give kudos to tab author, rate the tab!
1 2 3 4 5
comments
print report bad tab
guest
You may want to rate the tab now too:
select rating
Wanna post a correction for this tab? Suggest correction