Oops, an error
Loading. Please wait.

Lullaby For A Dead Man Tab

version 2
version 2

Intro

Interactive

1,659 views 3 this week
no commentswrite comment
1 2 3 4 5
3 more votes to show rating
add to favorites
launch autoscroll
font size
0
reset
how to read this tab
guitar tuner
Autoscroll
slow
fast
+/-
esc
set tempo
stop
Help us to improve Ultimate-Guitar.com Take our survey!
×
Author
This is my tabbed version of the song, i find it alot easier to play. It sounds 
more of or less the same as the other tab thats out there.


e|---------------------------------------------------------------------------|
B|---------------6---6-----6---6-----8---8-----------------------------------|
G|-----6---6----------------6---6-----8---8----------------------------------|
D|------8---8-----7---7------------------------------------------------------|
A|---------------------------------------------------------------------------|
E|---------------------------------------------------------------------------|

e|---------------------------------------------------------------------------|
B|---------------6---6-----6---6-----9---10----------------------------------|
G|-----6---6----------------6---6-----6----6---------------------------------|
D|------8---8-----7---7------------------------------------------------------|
A|---------------------------------------------------------------------------|
E|---------------------------------------------------------------------------|

Hope this helps! Thanks!
Suggest correction
Give kudos to tab author, rate the tab!
1 2 3 4 5
comments
print report bad tab
guest
You may want to rate the tab now too:
select rating
Wanna post a correction for this tab? Suggest correction