Oops, an error
Loading. Please wait.

Something Beautiful chords

by keywest
706 views 21 this week
no commentswrite comment
1 2 3 4 5
2 more votes to show rating
add to favorites
×
Save as Personal and add changes to this tab that will be seen only by you. Learn more ›
×
You can save this tab as Personal to edit and correct it or add notes. All changes will be seen only by you. Learn more »
launch autoscroll
font size
0
reset
transpose
0
reset
display chords
guitar tuner
edit
Autoscroll
slow
fast
+/-
esc
set tempo
stop
Strumming Is this strumming pattern correct? Yes No
All 120 bpm
1
&
2
&
3
&
4
&
Listen
Riff:
e|-----------------------|-----------------------|
B|--------3---1----------|--------3---1----------|
G|------2---------2------|------2---------2------|
D|--0-3------------------|--0-3------------------|
A|-----------------------|-----------------------|
E|-----------------------|-----------------------|

[INTRO]
Dm---|--C-|F---|----|

Bb---|F---|Bb---|F---|

[Verse 1]
Dm                  C        F
Wake, and I see you out with him
                 Bb    F                     Bb    F
When you lost my love,   you seemed lost, my love
   Dm                     C        F
So strange, that boy just seems so dim
                       Bb   F                         Bb     F
And you shine like the sun,   what were you thinking, love?

[Pre-Chorus]
Dm                         C
Ooh, Who mends your broken heart?
                   Bb                            C
And when you fall apart, who's there to pick the pieces up?

[Chorus]
    Dm              C               F
Oh, when I close my eyes I just see you
    Dm              C      F
Oh, we'd be so much better together, stuck like glue
             Dm         C            F
I'm thinking this could be something beautiful
             Dm         C            F
I'm thinking this could be something beautiful

[Verse 2]
       Dm                      C      F
Do you remember all those lazy summer days?
                   Bb   F                   Bb   F
Drinking cheap red wine    with no sense of time
               Dm                      C       F
Lost at the picnic, running, laughing, hand in hand
                     Bb    F                        Bb     F
In body and soul, we meet,   flying higher than the trees

[Pre-Chorus]
Dm                         C
Ooh, I love that you're so free
                        Bb
You keep coming back to me
                            C
'Cause someday, you'll find I'll be waiting

[Chorus]
    Dm              C               F
Oh, when I close my eyes I just see you
    Dm              C      F
Oh, we'd be so much better together, stuck like glue
             Dm         C            F
I'm thinking this could be something beautiful
             Dm         C            F
I'm thinking this could be something beautiful

[SOLO]
    Dm              C             F           Dm               C             F
e|--3h5-5-5-3---3-|-3h5-5-5-3---3-5-8-5----|--3h5-5-5-3---3-|--3h5-5-5-3---3------|
B|------------6---|-----------6------------|------------6---|------------6---6----|
G|----------------|------------------------|----------------|---------------------|
D|----------------|------------------------|----------------|---------------------|
A|----------------|------------------------|----------------|---------------------|
E|----------------|------------------------|----------------|---------------------|

[Bridge]
Dm                         C 
This could be the start of something real
Bb                         C
This could be the start of something beautiful
Dm                         C 
This could be the start of something real
Bb                         C
This could be the start of   something beautiful

[SOLO]
    Dm              C             F           Dm               C             F
e|--3h5-5-5-3---3-|-3h5-5-5-3---3-5-8-5----|--3h5-5-5-3---3-|--3h5-5-5-3---3------|
B|------------6---|-----------6------------|------------6---|------------6---6----|
G|----------------|------------------------|----------------|---------------------|
D|----------------|------------------------|----------------|---------------------|
A|----------------|------------------------|----------------|---------------------|
E|----------------|------------------------|----------------|---------------------|

[Chorus]
    Dm              C               F
Oh, when I close my eyes I just see you
    Dm              C      F
Oh, we'd be so much better together, stuck like glue
             Dm         C            F
I'm thinking this could be something beautiful
             Dm         C            F
I'm thinking this could be something beautiful

             Dm         C            F
I'm thinking this could be something beautiful
             Dm         C            F
I'm thinking this could be something beautiful
Suggest correction
Creating personal tab
Creating personal tab
You can edit any tab online and save it as your Personal.

You can edit, replace or remove any tab part or add personal notes – all changes will be seen only by you.

Personal tabs can be accessed anytime from any device, even offline.
Learn more »
Give kudos to tab author, rate the tab!
1 2 3 4 5
comments
print report bad tab
guest
You may want to rate the tab now too:
select rating
Wanna post a correction for this tab? Suggest correction