Oops, an error
Loading. Please wait.

Blood In The Cut Tab

version 1
version 1

Whole song

496 views 54 this week
no commentswrite comment
1 2 3 4 5
x 6
add to favorites
launch autoscroll
font size
0
reset
how to read this tab
guitar tuner
Autoscroll
slow
fast
+/-
esc
set tempo
stop
Help us to improve Ultimate-Guitar.com Take our survey!
×
Author
===========================
 K.Flay - Blood In The Cut
===========================
No Capo

[Intro]

e|-------------|-------------|-------------|-------------|
B|-------------|-------------|-------------|-------------|
G|-------------|-------------|-------------|-------------|
D|-------------|-------------|-------------|-------------|
A|-------7-----|-------7-----|-------7-----|-------------| x2
E|-0--0--------|-0--0--------|-0--0-----0--|-7--5--3-----|


[Verse 1]

e|-------------|-------------|-------------|-------------|
B|-------------|-------------|-------------|-------------|
G|-------------|-------------|-------------|-------------|
D|-------------|-------------|-------------|-------------|
A|-------7-----|-------7-----|-------7-----|-------------| x8
E|-0--0--------|-0--0--------|-0--0-----0--|-7--5--3-----|


[Chorus]

e|-------------|-------------|-------------|-------------|
B|-------------|-------------|-------------|-------------|
G|-------------|-------------|-------------|-------------|
D|-------------|-------------|-------------|-------------|
A|-------7-----|-------7-----|-------7-----|-------------| x4
E|-0--0--------|-0--0--------|-0--0-----0--|-7--5--3-----|

e|-------------|-------------|-------------|-------------|
B|-------------|-------------|-------------|-------------|
G|-------------|-------------|-------------|-------------|
D|-------------|-------------|-------------|-------------|
A|-x--x--x--x--|-x--x--x--x--|-x--x--x--x--|-x--x--x--x--|
E|-0--0--0--0--|-0--0--0--0--|-0--0--0--0--|-0--0--0--0--|


[Interlude]

e|-------------|-------------|-------------|-------------|
B|-------------|-------------|-------------|-------------|
G|-------------|-------------|-------------|-------------|
D|-------------|-------------|-------------|-------------|
A|-------7-----|-------7-----|-------7-----|-------------| x2
E|-0--0--------|-0--0--------|-0--0-----0--|-7--5--3-----|


[Verse 2]

e|-------------|-------------|-------------|-------------|
B|-------------|-------------|-------------|-------------|
G|-------------|-------------|-------------|-------------|
D|-------------|-------------|-------------|-------------|
A|-------7-----|-------7-----|-------7-----|-------------| x8
E|-0--0--------|-0--0--------|-0--0-----0--|-7--5--3-----|


[Chorus]

e|-------------|-------------|-------------|-------------|
B|-------------|-------------|-------------|-------------|
G|-------------|-------------|-------------|-------------|
D|-------------|-------------|-------------|-------------|
A|-------7-----|-------7-----|-------7-----|-------------| x4
E|-0--0--------|-0--0--------|-0--0-----0--|-7--5--3-----|

e|-------------|-------------|-------------|-------------|
B|-------------|-------------|-------------|-------------|
G|-------------|-------------|-------------|-------------|
D|-------------|-------------|-------------|-------------|
A|-x--x--x--x--|-x--x--x--x--|-x--x--x--x--|-x--x--x--x--|
E|-0--0--0--0--|-0--0--0--0--|-0--0--0--0--|-0--0--0--0--|


[Interlude]

e|-------------|-------------|-------------|-------------|
B|-------------|-------------|-------------|-------------|
G|-------------|-------------|-------------|-------------|
D|-------------|-------------|-------------|-------------|
A|-------7-----|-------7-----|-------7-----|-------------| x2
E|-0--0--------|-0--0--------|-0--0-----0--|-7--5--3-----|

e|-------------|-------------|-------------|-------------|
B|-------------|-------------|-------------|-------------|
G|-------------|-------------|-------------|-------------|
D|-5-----------|-7-----------|-x-----------|-x-----------|
A|-5-----------|-7-----------|-x-----------|-x-----------| x2
E|-3-----------|-5-----------|-0-----------|-0-----------|

e|-------------|-------------|-------------|-------------|
B|-------------|-------------|-------------|-------------|
G|-------------|-------------|-------------|-------------|
D|-------------|-------------|-------------|-------------|
A|-x--x--x--x--|-x--x--x--x--|-x--x--x--x--|-x--x--x--x--|
E|-0--0--0--0--|-0--0--0--0--|-0--0--0--0--|-0--0--0--0--|

e|-------------|-------------|-------------|-------------|
B|-------------|-------------|-------------|-------------|
G|-------------|-------------|-------------|-------------|
D|-------------|-------------|-------------|-------------|
A|-------7-----|-------7-----|-------7-----|-------------| x6 
E|-0--0--------|-0--0--------|-0--0-----0--|-7--5--3-----|

e|-------------|-------------|-------------|-------------|
B|-------------|-------------|-------------|-------------|
G|-------------|-------------|-------------|-------------|
D|-------------|-------------|-------------|------r------|
A|-------7-----|-------7-----|-------7-----|-------------| 
E|-0--0--------|-0--0--------|-0--0-----0--|-------------|


[Chorus]

e|-------------|-------------|-------------|-------------|
B|-------------|-------------|-------------|-------------|
G|-------------|-------------|-------------|-------------|
D|-------------|-------------|-------------|-------------|
A|-------7-----|-------7-----|-------7-----|-------------| x4
E|-0--0--------|-0--0--------|-0--0-----0--|-7--5--3-----|

e|-------------|-------------|-------------|-------------|
B|-------------|-------------|-------------|-------------|
G|-------------|-------------|-------------|-------------|
D|-------------|-------------|-------------|-------------|
A|-x--x--x--x--|-x--x--x--x--|-x--x--x--x--|-x--x--x--x--|
E|-0--0--0--0--|-0--0--0--0--|-0--0--0--0--|-0--0--0--0--|


__________________________
x - Dead Note
r - Rest
Suggest correction
comments
print report bad tab
guest
You may want to rate the tab now too:
select rating
Wanna post a correction for this tab? Suggest correction