Oops, an error
Loading. Please wait.

Bajo El Halo De La Muerte tab

by Khafra
37 views 1 this week
no commentswrite comment
1 2 3 4 5
3 more votes to show rating
add to favorites
×
Save as Personal and add changes to this tab that will be seen only by you. Learn more ›
×
You can save this tab as Personal to edit and correct it or add notes. All changes will be seen only by you. Learn more »
launch autoscroll
font size
0
reset
how to read this tab
guitar tuner
edit
Autoscroll
slow
fast
+/-
esc
set tempo
stop
         P.M.--|                      P.M---|
e||---------------------------------------------------|
B||---------------------------------------------------|
G||------------------2--------------------------------|
D||-2-5----------2-5-2------------2-5---------2-------|  (x2)
A||-2-5----------2-5-0-3--2-------2-5---------2-------|
E||-0-3--5-3-2-3-0-3--------5-3-2-0-3-5-3-2-3-0-------|


    P.M.------------------------------------------|
e||--------------------------------------------------|
B||--------------------------------------------------|
G||--------------------------------------------------|
D||--------------------------------------------------|
A||--------------------------------------------------|
E||-0--0-0-2-3-2-1-0--0-0-2-3-2-1-0--0-0-2-3-2-1-0---|
**Éste es el acompañamiento del verso**

Mi cuerpo yace tieso en una loza de metal
Sólo escucho voces, estoy en un hospital
Mi espíritu ahora flota no se siente nada igual
Puedo ver mi cuerpo, no lo puedo ni tocar!

**Riff del inicio**

Ahora me doy cuenta de que acabo de morir
Me suelto dando gritos ya nadie me puede oír
Mil dudas me atormentan no se cual será mi fin
Pobre ser humano ¡por qué debe ser así!

                             P.M.   P.M. P.M.
e||--------------------------------------------------|
B||--------------------------------------------------|
G||-5-4--------2-4--5-5-7777-----9------7----9-------|
D||-5-4--------2-4--5-5-7777-----9------7----9-------|
A||-3-2--3-2---0-2--3-3-5555-----7------5----7-------|
E||----------3---------------0000---0000---00--------|

No sé, qué hay, ¿qué hay más allá?
Tengo miedo de llegar...

e||-----------------------------------|
B||-----------------------------------|
G||-5-4--------2-4--5-5-7777----------|
D||-5-4--------2-4--5-5-7777----------|
A||-3-2--3-2---0-2--3-3-5555----------|
E||----------3------------------------|

No sé, si habrá, reencarnación
De todo tengo temor...

     P.M.---------------------------------|
e||-------------------------------------------
B||-------------------------------------------
G||-------------------------------------------
D||---------------------------5555-44444444---
A||--2222-9999-88888888--2222-3333-22222222---
E||--0000-7777-66666666--0000-----------------

     P.M----------------------------|
e||--------------------------------------------|
B||--------------------------------------------|
G||--------------------------------------------|
D||--2222-5555-44444444---------------4--------|
A||--0000-3333-22222222-2222-5555-444-4--------|
E||---------------------0000-3333-222-2--------|


El requinto va acompañado con:
SI, SOL, MI, SI.
SI, SOL, LA, SI. (bis)


    P.M.-----------------------------------------|
e||--------------------------------------------------|
B||--------------------------------------------------|
G||--------------------------------------------------|
D||--------------------------------------------------|
A||--------------------------------------------------|
E||-0--0-0-2-3-2-1-0--0-0-2-3-2-1-0--0-0-2-3-2-1-0---|

La muerte es un enigma en la existencia terrenal
Es el último paso de la vida material
Pienso que mi cuerpo sólo fue su habitación
Mi espíritu lo mira putrefacto en el panteón!!

No sé, qué hay, ¿qué hay más allá?...


Bueno, básicamente es toda la canción;
se toca nuevamente el verso y el coro, cerrando con el riff del inicio.
Cualquier duda o comentario: 
Un saludo!!

            
            
Suggest correction
Creating personal tab
Creating personal tab
You can edit any tab online and save it as your Personal.

You can edit, replace or remove any tab part or add personal notes – all changes will be seen only by you.

Personal tabs can be accessed anytime from any device, even offline.
Learn more »
Give kudos to tab author, rate the tab!
1 2 3 4 5
comments
print report bad tab
guest
Wanna post a correction for this tab? Suggest correction