Oops, an error
Loading. Please wait.

Caja De Metal tab

by Khafra
123 views 3 this week
no commentswrite comment
1 2 3 4 5
3 more votes to show rating
add to favorites
×
Save as Personal and add changes to this tab that will be seen only by you. Learn more ›
×
You can save this tab as Personal to edit and correct it or add notes. All changes will be seen only by you. Learn more »
launch autoscroll
font size
0
reset
how to read this tab
guitar tuner
edit
Autoscroll
slow
fast
+/-
esc
set tempo
stop
INTRO

G---------------------
D--2-2---2-2--2-2--2-2 X2
A--4-4---4-4--4-4--4-4
E---------------------

BAJO

LUEGO VA ESTO
D---------------------------------------------
A--2-2--5-4-3-2-2-------2-2--5-4-3-55555-77777 X2
E-----------------0-2-3------------33333-55555

G----------------------
D--2-2---2-2--2-2---2--
A--4-4---4-4--4-4---0--
E----------------------

SU PENSAMIENTO ESTA LEJOS YA
A--22222222222222222222222

LA MUERTE EN SUS MANOS BESO
E--333333333333333333333333

DE UN SUEÑO PROFUNDO SURGIO DEPSERTAR
A--222222222222222222222222222

LA MUERTE DEL ABISMO LO DEJO ESCAPAR
E--33333333333333333333333333333

NO CABE EN LA CAJA EN QUE ESTA
E--5--3--222222222222

EL SABE QUE A PERDIDO HOY
E--2-3-5-33333333333333

SUS OJOS SE ABRIERON A LA OBSCURIDAD
A--------2---2---2---2---2
E--2-3-5-000000000000000000

SUS MANOS BUSCARON SALIDAS QUE NO HAY
A--4-----4-------4--999-777-555-444-
E--2-2-2-2-2-2-2-2-

CORO:

EL ESTA EN UNA CAJA DE METAL
NUESTRA SENTENCIA ES TAN SOLO ESPERAR
NO PODREM,OS VER EL CIELO YA MAS
NO INTENTES LUCHAR O TAMBIEN MORIRAS


G-----------------------
D--2-------7-----2-----2 X4
A--4-------5-----0-----4
E-----------------------

G-----------------
D--2-2------------
A--4-4--5-5--7-7--
E-------3-3--5-5--

SE REPITE LOS VERSOS:

SU MENTE DA VUELTAS YA NO PARARA
NO PUEDE MOVERSE EN LA CAJA EN QUE ESTA
SOLO LA MUERTE LO ESCUCHA LLORAR
SOLO LA MUERTE LE PUEDE AYUDAR
ESTA ATADO EN LA OBSCURIDAD
NO SIENTE PELIGRO YA MAS
LA MUERTE LOGRO SUS LABIOS BESAR
LA ,UERTE DEL ABISMO LO DEJO ESCAPAR

REP CORO
EL ESTA EN UNA CAJA DE METAL
NUESTRA SENTENCIA ES TAN SOLO ESPERAR
NO PODREM,OS VER EL CIELO YA MAS
NO INTENTES LUCHAR O TAMBIEN MORIRAS


Y LUEGO       JAJAJAJAJAJA
G--------------------------------
D--2-2------------2-2--5-5--7-7--
A--4-4--5-5--7-7--4-4--3-3--5-5--
E-------3-3--5-5-----------------

SOLO

e-----7------------
B--5-----8--------- A VERDAD?
G------------7-9--asi empieza


y despues

A--5-7
E--3-5

D---------------------------------------------
A--2-2--5-4-3-2-2-------2-2--5-4-3-55555-77777
E-----------------0-2-3------------33333-55555

G---------------------
D--2-2---2-2--2-2--2--
A--4-4---4-4--4-4--0--
E---------------------

CORO:

G-----------------------
D--2-------7-----2-----2
A--4-------5-----0-----4
E-----------------------

FINAL:
 JAJA MUERE  JAJAJA MUERE
G------------------------------------------
D--2-2-------------2-2-------------2----2--
A--4-4--5-5--7-7---4-4--5-5--7-7---4----4--
E-------3-3--5-5--------3-3--5-5-----------


AHI ESTA CARNALES HABER QUIEN SE SUBE EL SOLO
SALUDOS DESDE EL VALHALLA. te quiero jossy

            
            
Suggest correction
Creating personal tab
Creating personal tab
You can edit any tab online and save it as your Personal.

You can edit, replace or remove any tab part or add personal notes – all changes will be seen only by you.

Personal tabs can be accessed anytime from any device, even offline.
Learn more »
Give kudos to tab author, rate the tab!
1 2 3 4 5
comments
print report bad tab
guest
Wanna post a correction for this tab? Suggest correction