Oops, an error
Loading. Please wait.

No Te Detengas tab

by Khafra
14 views 1 this week
no commentswrite comment
1 2 3 4 5
3 more votes to show rating
add to favorites
×
Save as Personal and add changes to this tab that will be seen only by you. Learn more ›
×
You can save this tab as Personal to edit and correct it or add notes. All changes will be seen only by you. Learn more »
launch autoscroll
font size
0
reset
how to read this tab
guitar tuner
edit
Autoscroll
slow
fast
+/-
esc
set tempo
stop
Un poco de esta rola de esta buena banda de metal

Intro:

E---------------------------------------------
B---------------------------------------------
G--9-9-9-9-9-9-9-9-9-9-9-12-5-----------------
D--9-9-9-9-9-9-9-9-9-9-9-12-7-----------------
A--7-7-7-7-7-7-7-7-7-7-7-10-7-----------------
E---------------------------------------------

E---------------------------------------------
B---------------------------------------------
G--9-9-9-9-9-9-9-9-9-9-9-5--------------------
D--9-9-9-9-9-9-9-9-9-9-9-7--------------------
A--7-7-7-7-7-7-7-7-7-7-7-7--------------------
E---------------------------------------------

E---------------------------------------------
B---------------------------------------------
G--9-9-9-9-9-9-9-9-9-9-9-12-5-----------------
D--9-9-9-9-9-9-9-9-9-9-9-12-7-----------------
A--7-7-7-7-7-7-7-7-7-7-7-10-7-----------------
E---------------------------------------------

E---------------------------------------------
B---------------------------------------------
G--9-9-9-9-9-9-9-9-9-9-9-5--------------------
D--9-9-9-9-9-9-9-9-9-9-9-7--------------------
A--7-7-7-7-7-7-7-7-7-7-7-7--------------------
E---------------------------------------------

Luego entra la bateria y se sigue tocando esto
otras dos veces.

Despues viene esto y se da el efecto con la palanca.

E-----------------------------------------------
B-----------------------------------------------
G---16b--12b-------18-12/15/12------------------

Hey tu si quieres escuchar una cancion de 
critica social.....

Se sigue tocando la intro.

Espero me haya salido bien luego les mando lo demas.
Suggest correction
Creating personal tab
Creating personal tab
You can edit any tab online and save it as your Personal.

You can edit, replace or remove any tab part or add personal notes – all changes will be seen only by you.

Personal tabs can be accessed anytime from any device, even offline.
Learn more »
Give kudos to tab author, rate the tab!
1 2 3 4 5
comments
print report bad tab
guest
Wanna post a correction for this tab? Suggest correction