Oops, an error
Loading. Please wait.

August Twelve tab

373 views 18 this week
3 commentsread comments
1 2 3 4 5
x 3
add to favorites
×
Save as Personal and add changes to this tab that will be seen only by you. Learn more ›
×
You can save this tab as Personal to edit and correct it or add notes. All changes will be seen only by you. Learn more »
launch autoscroll
font size
0
reset
how to read this tab
guitar tuner
edit
Autoscroll
slow
fast
+/-
esc
set tempo
stop
[Intro]
e|--12--10-------12--10--------12--10---------|-------------------------------------------|
B|----------12-----------12------------12--12-|--12--10-------12--10-------12--10---------|
G|--------------------------------------------|----------11-----------11-----------11--11-|
D|--------------------------------------------|-------------------------------------------|
A|--------------------------------------------|-------------------------------------------|
E|--------------------------------------------|-------------------------------------------|

e|----------------------------------|---------------------------------------|
B|----------------------------------|----------------10-------------10--12--|
G|--9--7-----9--7-------9--7--------|--7----7--9/11------11-----11----------|
D|--------9--------9----------9--9--|---------------------------------------|
A|----------------------------------|---------------------------------------|
E|----------------------------------|---------------------------------------|

e|--12--10-------12--10--------12--10---------|-------------------------------------------|
B|----------12-----------12------------12--12-|--12--10-------12--10-------12--10---------|
G|--------------------------------------------|----------11-----------11-----------11--11-|
D|--------------------------------------------|-------------------------------------------|
A|--------------------------------------------|-------------------------------------------|
E|--------------------------------------------|-------------------------------------------|

e|----------------------------------|----------------------------|
B|----------------------------------|----------------------------|
G|--9--7-----9--7-------9--7--------|--7---6--6--6---------------|
D|--------9--------9----------9--9--|---------------9--7--7------|
A|----------------------------------|-------------------------10-|
E|----------------------------------|----------------------------|

[0.26]
e|---------------------------------------------|------------------------------------------------------------|
B|---------------------------------------------|------------------------------------------------------------|
G|----------------------------9--7h9p7---------|------------------------------------------------------------|
D|-----------7--9/11---7--7-------------9--9---|--12--12--12p11---11--11--11p9---9--9--9\7---7--7--7---10---|
A|-9--9--9-------------------------------------|------------------------------------------------------------|
E|---------------------------------------------|------------------------------------------------------------|

e|-------------------------------------------|---------------------------------------------|
B|-------------------------------------------|------------10-------------------10----------|
G|---------------------------9--7h9p7--------|--7--9/11-------11p9---7--9/11-------11p9----|
D|-----------7--9/11---7--7------------9--9--|---------------------------------------------|
A|-9--9--9-----------------------------------|---------------------------------------------|
E|-------------------------------------------|---------------------------------------------|

e|------------------------------------|-------------------------------------------------------|
B|--------------10--12/14-----10--10--|-------------------------------------10----------------|
G|--7--9/11---------------------------|--11--9h11p9\7--------------7--9/11------11p9\7--9/11--|
D|------------------------------------|----------------9---7--7h9-----------------------------|
A|------------------------------------|-------------------------------------------------------|
E|------------------------------------|-------------------------------------------------------|

e|--12--10-------12--10--------12--10---------|-------------------------------------------|
B|----------12-----------12------------12--12-|--12--10-------12--10-------12--10---------|
G|--------------------------------------------|----------11-----------11-----------11--11-|
D|--------------------------------------------|-------------------------------------------|
A|--------------------------------------------|-------------------------------------------|
E|--------------------------------------------|-------------------------------------------|

e|--------------------------------------------|------------------------------------------|
B|-----------------------------10-------------|------------------------------------------|
G|---9--7-------------7--9/11------9----9--9--|--------7--9/11---11--9--11----11--9--11--|
D|---------9----7--9--------------------------|---7h9------------------------------------|
A|--------------------------------------------|------------------------------------------|
E|--------------------------------------------|------------------------------------------|

e|-------------------------------------|----------------------------------------|
B|-------------------10h12--10---------|----------------------------------------|
G|--9h11---9h11--11-------------11--9--|---7--9p7---7h9--9--9/11--9\7--7h9--9---|
D|-------------------------------------|----------------------------------------|
A|-------------------------------------|----------------------------------------|
E|-------------------------------------|----------------------------------------|

e|-----------------------------------------------------------|
B|-----------------------------------------------------------|
G|---7--9p7--7h9--9---9/11--9\7--------------------7--9/11---|
D|-------------------------------9p7--7--9p7--7h9------------|
A|-----------------------------------------------------------|
E|-----------------------------------------------------------|

e|-------------------------------------|------------------------10h12--10----------------------|
B|-------------------------------------|-----10h12--10----------------------12p10------10h12---|
G|--11p9--11---11p9--11---9--11---9h11-|-11-------------11--9----------------------11----------|
D|-------------------------------------|-------------------------------------------------------|
A|-------------------------------------|-------------------------------------------------------|
E|-------------------------------------|-------------------------------------------------------|

e|--------------------------------------|----------------------------------------------------|
B|----------------------10--------------|----------------------------------------------------|
G|-----------7---9/11--------9---9------|----------------------------------------------------|
D|---7---9------------------------------|---12--12--12\11--11--11--11\9--9--9--9\7--7--7--7--|
A|--------------------------------------|----------------------------------------------------|
E|--------------------------------------|----------------------------------------------------|

[1.42]
e|---7---|---5---|---7---|------|
B|---7---|---5---|---7---|------|
G|---7---|---6---|---7---|------|     x13
D|---9---|---7---|---9---|------|
A|---9---|---7---|---9---|------|
E|---7---|---5---|---7---|------|
     Bm      A       Bm

[2.58]
e|----------------------------------------------|------------------------------------------------------------|
B|---10--9---9---9--10p9------------------------|------9h10p9-----------------------10h12p10-----------------|
G|---9---9---9---9--------11p9--------9---------|--------------11p9--------9--9h11-------------11p9---9h11---|
D|------------------------------9h11------------|--------------------9h11-----------------------------------9|
A|---------------------------------------9--11--|--11--------------------------------------------------------|
E|----------------------------------------------|------------------------------------------------------------|

e|----------------------------------------------|------------------------------------------------------------|
B|---10--9---9---9--10p9------------------------|------9h10p9-----------------------10h12p10-----------------|
G|---9---9---9---9--------11p9--------9---------|--------------11p9--------9--9h11-------------11p9---9h11---|
D|------------------------------9h11------------|--------------------9h11-----------------------------------9|
A|---------------------------------------9--11--|--11--------------------------------------------------------|
E|----------------------------------------------|------------------------------------------------------------|

[3.48]
e|---------------------------------------------|----------------------------------------------------|
B|-----------------------9---9---9---9---9---9-|------------------------------10--10--10--10--7---7-|
G|---------9-------------9---9---9---9---9---9-|--------9---------------------9---9---9---9---7---7-|
D|---9/11-----11p9\7--9------------------------|--9/11-----11p9\7--9p7--9/11------------------------|
A|---------------------------------------------|----------------------------------------------------|
E|---------------------------------------------|----------------------------------------------------|

e|---------------------------------------------|-----------------------------------------------------|
B|-----------------------9---9---9---9---9---9-|------------------------------10----10---------------|
G|---------9-------------9---9---9---9---9---9-|--------9---------------------9h11--9----------------|
D|---9/11-----11p9\7--9------------------------|--9/11-----11p9\7--9p7--9/11------------11p9\7--9--7-|
A|---------------------------------------------|-----------------------------------------------------|
E|---------------------------------------------|-----------------------------------------------------|

e|---------------------------------|----------------------------------|
B|---------------------------------|----------------------------------|
G|-----------------9---------------|-----------------9----------------|
D|--------7--9/11-----11p9\7--9----|--------7--9/11-----11p9\7--9-----|
A|---7h9---------------------------|---7h9----------------------------|
E|---------------------------------|----------------------------------|

e|---------------------------------------|------------------------------------|
B|---------------------------------------|------11----11----------------------|
G|-----------------9---------------------|------9h11--9-----------------------|
D|--------7--9/11-----11p9\7--9p7--9/11--|--11-----------11p9\7--9---9/11--7--|
A|---7h9---------------------------------|------------------------------------|
E|---------------------------------------|------------------------------------|


************************************

| h   Hammer-on
| p   Pull-off
| /   Slide up
| \   Slide down

************************************

            
            
Suggest correction
Creating personal tab
Creating personal tab
You can edit any tab online and save it as your Personal.

You can edit, replace or remove any tab part or add personal notes – all changes will be seen only by you.

Personal tabs can be accessed anytime from any device, even offline.
Learn more »
Give kudos to tab author, rate the tab!
1 2 3 4 5
comments
print report bad tab
3 comments total.
0 reply
jazzmastersash 10 May 22, 2017 04:16 PM

Thank you so much for this!!! It's so acurate! (I mean to say it's all correct) I love Khruangbin! I would love if you'd make more tabs from them! please make Dern Kala!

guest
You may want to rate the tab now too:
select rating
Wanna post a correction for this tab? Suggest correction