Oops, an error
Loading. Please wait.

Kill You chords

version 2
version 2

Whole song

40 views 1 this week
no commentswrite comment
1 2 3 4 5
3 more votes to show rating
add to favorites
×
Save as Personal and add changes to this tab that will be seen only by you. Learn more ›
×
You can save this tab as Personal to edit and correct it or add notes. All changes will be seen only by you. Learn more »
launch autoscroll
font size
0
reset
transpose
0
reset
simplify chords
display chords
guitar tuner
edit
Autoscroll
slow
fast
+/-
esc
set tempo
stop
Strumming
There is no strumming pattern for this song yet. and get +5 IQ
"Kill You"
By Kicking Harold
Red Light District
Ultradose Music 2015

tabbed by tedcorby@yahoo.com

I originally posted this song in drop D tuning, but I met Tim David Kelly from the band and he told me
that this song is actually performed one full step down from standard tuning (D-G-C-F-A-D).
Tune down and enjoy.

Tuning: one whole step down


Intro: 
G-A#-F G-A#-C x 2

Verse 1
C
Somewhere I lost touch with you

You disappeared without a clue


Pre Chorus
    G      A        F
And I just want to talk
    G       A       F       C
And I just want to talk to you…to you


Chorus 1
G              A# F               G        A#  C 
Would it kill you if I told you I love you
G              A# F               G        A#  C 
Would it kill you if I told you I care…           I care


Verse 2
C
Crashing through a wall of fear

Cause this old brick has new ears


Pre Chorus
    G      A       F
And I just want to talk
    G      A       F       C
And I just want to talk to you…to you


Chorus 2
G              A# F               G        A#  C 
Would it kill you if I told you I love you
G              A# F               G        A#  C 
Would it kill you if I told you I care…                 
G              A# F               G        A#  C 
Would it kill you if I told you I love you
F
Would you drop dead or would you fall for me


Guitar solo
  D        A#           G           C              D      A#
d|--------|------------|-----------|--------------|------|------------------------|
A|--------|------------|-----------|--------------|------|-----13-15--------------|
F|--10-9--|--10-9-7-5--|--7--10-9--|--10-9-10-12--|--14--|--14--------------------|
C|--------|------------|-----------|--------------|------|------------------------|
G|--------|------------|-----------|--------------|------|------------------------|
D|--------|------------|-----------|--------------|------|------------------------|

  G                    C                     D (interlude)
d|--------------------|---------------------|----------------------------------|
A|--------------------|-----------13----13--|--15------------------------------|
F|--10-9-10-12-10-12--|--14-12-14----14-----|----------------------------------|
C|--------------------|---------------------|----------------------------------|
G|--------------------|---------------------|----------------------------------|
D|--------------------|---------------------|----------------------------------|


Interlude
D         A#                 G
Somewhere I lost touch with you
        C
I just want to talk to you
D         A#                 C
Somewhere I lost touch with you…you


Chorus 3
G              A# F               G        A#  C 
Would it kill you if I told you I love you
G              A# F               G        A#  C 
Would it kill you if I told you I care…                 
G              A# F               G        A#  C 
Would it kill you if I told you I love you
G              A# F               G        A#  C 
Would it kill you if I told you that I’m scared


Outro
  C         D4
d|-------------------|
A|-------------------|
F|------0-------0----|
C|----2---2---4---4--|
G|--3-------5--------|
D|-------------------|
Fall for me x 4

            
            
Suggest correction
Creating personal tab
Creating personal tab
You can edit any tab online and save it as your Personal.

You can edit, replace or remove any tab part or add personal notes – all changes will be seen only by you.

Personal tabs can be accessed anytime from any device, even offline.
Learn more »
Give kudos to tab author, rate the tab!
1 2 3 4 5
comments
print report bad tab
guest
You may want to rate the tab now too:
select rating
Wanna post a correction for this tab? Suggest correction