Oops, an error
Loading. Please wait.

Confused Tab

version 1
version 1

Whole song

  • Explained what times the riff is or isn't played d... Show more
37 views 9 this week
no commentswrite comment
1 2 3 4 5
3 more votes to show rating
add to favorites
launch autoscroll
font size
0
reset
how to read this tab
guitar tuner
Autoscroll
slow
fast
+/-
esc
set tempo
stop
Help us to improve Ultimate-Guitar.com Take our survey!
×
Author
Difficulty
About this tab version
Explained what times the riff is or isn't played during the second verse, included lead riff. Was this info helpful? Yes No
Base riff throughout whole song

    A5              G5              D5             C5
e|-----------------------------------------------------------------|
B|-----------------------------------------------------------------|
G|----------------------------------7------7------\5-------5-------|
D|--7---7---7\------5---5---5-------7------7------\5--(5)--5-------|
A|--7---7---7\------5---5---5-------5------5------\3---3---3--(0)--|
E|--5---5---5\-(0)--3---3---3--(0)---------------------------------|

Through [Verse 2] some parts of the riff are not played at times

I always end up back in a cycle of shame                - no riff
Looking in the mirror is hard                           - riff played normally
Some days I hurt myself to distract me from distraction - riff played normally
That's madness fixing sadness                           - riff played normally
Go on adventures to find that the answers aren't plain  - no riff
But there's comfort in tears                            - only final half (D5 and C5) played
Decoding my sacred heart, flying from here              - riff played normally
No more falling apart                                   - riff played normally

[Bridge 1] ("I hate the drugs but I love the numb...")

e|---------------------------------------------------------------------|
B|---------------------------------------------------------------------|
G|---------------------------------------------------------------------|
D|--10---10---12---9---9---9---9---9---9---9---10---9---7---7---7---7--|
A|---------------------------------------------------------------------|
E|---------------------------------------------------------------------|

e|------------------------------------------------------------------------|
B|------------------------------------------------------------------------|
G|------------------------------------------------------------------------|
D|--10---10---10---9---9---9---9---9---9---9---9---9---12---12---12---12--|
A|------------------------------------------------------------------------|
E|------------------------------------------------------------------------|

Play it twice.

The rest of the song goes back to the base riff.

Lead riff is repeated twice after [Outro].


************************************

| \    Slide down
| (n)  Ghost note

************************************
Suggest correction
Give kudos to tab author, rate the tab!
1 2 3 4 5
comments
print report bad tab
guest
You may want to rate the tab now too:
select rating
Wanna post a correction for this tab? Suggest correction