Oops, an error
Loading. Please wait.

Day N Nite Tab

version 3
version 3

Whole song

Interactive

4,638 views 1 this week
no commentswrite comment
1 2 3 4 5
2 more votes to show rating
add to favorites
launch autoscroll
font size
0
reset
how to read this tab
guitar tuner
Autoscroll
slow
fast
+/-
esc
set tempo
stop
Help us to improve Ultimate-Guitar.com Take our survey!
×
Tabbed by: Byron Everson
Myspace: myspace.com/be2003

Artist: Kid Cudi
Song: Day N Nite
Album: Man on the Moon: The Guardians
Year: 2009

Tuning: Standard

Either sounds good to me! :)

e|-----------------------------------|
B|-----------------------------------|
G|-----------------------------------|
D|-5-5-4-4-2-2-----------------------|
A|-------------5-5-2-2-2-2-2-2-5-2---|
E|-----------------------------------|

Or

e|--------------------------------------------------|
B|--------------------------------------------------|
G|-12-12-11-11-9--9---------------------------------|
D|-------------------12-12-9--9--9--9--9--9--12-9---|
A|--------------------------------------------------|
E|--------------------------------------------------|

Suggest correction
Give kudos to tab author, rate the tab!
1 2 3 4 5
comments
print report bad tab
guest
You may want to rate the tab now too:
select rating
Wanna post a correction for this tab? Suggest correction