Oops, an error
Loading. Please wait.

Embers tab

1,276 views 12 this week
1 commentread comment
1 2 3 4 5
x 4
add to favorites
×
Save as Personal and add changes to this tab that will be seen only by you. Learn more ›
×
You can save this tab as Personal to edit and correct it or add notes. All changes will be seen only by you. Learn more »
launch autoscroll
font size
0
reset
how to read this tab
guitar tuner
edit
Autoscroll
slow
fast
+/-
esc
set tempo
stop
-------------------------------------------------------------------------------
                             Kid Cudi - Embers
-------------------------------------------------------------------------------
Tabbed by: Gautierfontaine
E-mail: gautier.fontaine@free.fr

Here is a very nice song of Kid Cudi

Intro :

e|--------1------------------------------------------------------------------|
B|-3-2-3---------------------------------------------------------------------|
G|---------------------------------------------------------------------------|
D|---------------------------------------------------------------------------|
A|---------------------------------------------------------------------------|
E|---------------------------------------------------------------------------|

Song :

e|---------------------------------------------------------------------------|
B|---------------------------------------------------------------------------|
G|-----0---0-------0---0-------0---0-------0---0-------0-------0-------0---0-|
D|---3---3---3---3---3---3---5---5---5---5---5---5---8---8---7---7---3---3---|
A|-1-----------1-----------3-----------3-----------6-------5-------1---------|
E|---------------------------------------------------------------------------|

Repeat this theme

            
            
Suggest correction
Creating personal tab
Creating personal tab
You can edit any tab online and save it as your Personal.

You can edit, replace or remove any tab part or add personal notes – all changes will be seen only by you.

Personal tabs can be accessed anytime from any device, even offline.
Learn more »
comments
print report bad tab
1 comment total.
+1 reply
tommitd5 508 Feb 10, 2016 09:44 PM

you are adding a bit to much on the cycle. this is the right tab.

e|-----------------------------------------------------|
B|-----------------------------------------------------|
G|-----0---0-------0---0-------0---0-------0-------0---|
D|---3---3---3---3---3---3---5---5---5---8---8---7---7-|
A|-1-----------1-----------3-----------6-------5-------|
E|-----------------------------------------------------|

guest
You may want to rate the tab now too:
select rating
Wanna post a correction for this tab? Suggest correction