Oops, an error
Loading. Please wait.

Erase Me bass

version 2
version 2

Whole song

Interactive

4,911 views 1 this week
no commentswrite comment
1 2 3 4 5
1 last vote to show rating
add to favorites
×
Save as Personal and add changes to this tab that will be seen only by you. Learn more ›
×
You can save this tab as Personal to edit and correct it or add notes. All changes will be seen only by you. Learn more »
launch autoscroll
font size
0
reset
guitar tuner
edit
Autoscroll
slow
fast
+/-
esc
set tempo
stop
Author
Difficulty
"She said I don't spend time like I really should"

G--------------------------------------|
D--------------------------------------|
A----------4-4-4-4---------------------|
E--5-5-5-5---------2-2-2-2-2-2-2-2-----|X4

"A couple days no talking,I seen my baby"
|
G--------------------------------------|
D--------------------------------------|
A--5-5-5-5-4-4-4-4-2-2-2-2-2-2-2-2-----|
E--------------------------------------|

"And this what she tells me
She said:"

G--------------------------------------|
D--------------------------------------|
A--5-5-5-5-4-4-4-4-7-7-7-7-7-7-7-7-----|
E--------------------------------------|

"I keep on running, keep on running
and nothing works
I can't get away from you"

G---------------------------------------------------------------------|
D---------------------------------------------------------------------|
A--------------------------------------------------5-5-5-5-5-5-5-5----|
E--5-5-5-5-5-5-5-5-0-0-0-0-0-0-0-0-2-2-2-2-2-2-2-2--------------------|

"No, I keep on ducking, keep on ducking
and nothing helps
I can't stop missing you, yeah"

G---------------------------------------------------------------------|
D---------------------------------------------------------------------|
A--------------------------------------------------5-5-5-5-5-5-5-5----|
E--5-5-5-5-5-5-5-5-0-0-0-0-0-0-0-0-2-2-2-2-2-2-2-2--------------------|

"It's like I'm her new nightmare She ain't escaping"

G--------------------------------------|
D--------------------------------------|
A----------4-4-4-4---------------------|
E--5-5-5-5---------2-2-2-2-2-2-2-2-----|x3

"Memories, they soon delete hmmmmmm"

G-----------------------|
D-----------------------|
A----------4-4-4-4------|
E--5-5-5-5--------------|


"A couple weeks no talking, I seen my baby"

G--------------------------------------|
D--------------------------------------|
A--5-5-5-5-4-4-4-4-2-2-2-2-2-2-2-2-----|--|
E--------------------------------------|  |
                                          |
"I've missed you so damn much, hey"       | 
                                          |
G--------------------------------------|  |
D--------------------------------------|  |
A--5-5-5-5-4-4-4-4-7-7-7-7-7-7-7-7-----|  |
E--------------------------------------|--|-----X2

"I keep on running, keep on running
and nothing works
I can't get away from you"

G---------------------------------------------------------------------|
D---------------------------------------------------------------------|
A--------------------------------------------------5-5-5-5-5-5-5-5----|
E--5-5-5-5-5-5-5-5-0-0-0-0-0-0-0-0-2-2-2-2-2-2-2-2--------------------|


"No, I keep on ducking, keep on ducking
and nothing helps
I can't stop missing you, yeah"

G---------------------------------------------------------------------|
D---------------------------------------------------------------------|
A--------------------------------------------------5-5-5-5-5-5-5-5----|
E--5-5-5-5-5-5-5-5-0-0-0-0-0-0-0-0-2-2-2-2-2-2-2-2--------------------|

"Cause I'm in the magazines, on the TV
No matter where you are, you might hear me"

G---------------------------------|
D---------------------------------|
A--0-0--0---------------5-5-5-5---|
E---------0-0--0-2-2--2-----------|X4





"Uh, I'm Yeezy, she said, 'Hi I'm Aria'
No, you an angel, you wave hi to Aaliyah"

G--------------------------------------|
D--------------------------------------|
A----------4-4-4-4---------------------|
E--5-5-5-5---------2-2-2-2-2-2-2-2-----|X3

"Don C says she cool, but don't let her f*ck her cream up
Monica Lewinski on the dress, she'll take ya to the cleaner"

G--------------------------------------|
D--------------------------------------|
A----------4-4-4-4-7-7-7-7-7-7-7-7-----|
E--5-5-5-5-----------------------------|

"Sure enough a week later I'm an extra love
And everybody know she mine, so she extra plugged"

G--------------------------------------|-------------------|
D--------------------------------------|                   |
A--5-5-5-5-4-4-4-4-2-2-2-2-2-2-2-2-----|                   |
E--------------------------------------|                   |
                                                           |
"Every bouncer, every club show her extra love             |
We just praying the new fame don't get the best of us"     |
                                                           |
G--------------------------------------|                   |
D--------------------------------------|                   |
A--5-5-5-5-4-4-4-4-7-7-7-7-7-7-7-7-----|                   |
E--------------------------------------|-------------------|---X2

"I keep on running, keep on running
and nothing works
I can't get away from you"

G---------------------------------------------------------------------|
D---------------------------------------------------------------------|
A--------------------------------------------------5-5-5-5-5-5-5-5----|
E--5-5-5-5-5-5-5-5-0-0-0-0-0-0-0-0-2-2-2-2-2-2-2-2--------------------|


"No, I keep on ducking, keep on ducking
and nothing helps
I can't stop missing you"

G---------------------------------------------------------------------|
D---------------------------------------------------------------------|
A--------------------------------------------------5-5-5-5-5-5-5-5----|
E--5-5-5-5-5-5-5-5-0-0-0-0-0-0-0-0-2-2-2-2-2-2-2-2--------------------|



            
            
Suggest correction
Creating personal tab
Creating personal tab
You can edit any tab online and save it as your Personal.

You can edit, replace or remove any tab part or add personal notes – all changes will be seen only by you.

Personal tabs can be accessed anytime from any device, even offline.
Learn more »
Give kudos to tab author, rate the tab!
1 2 3 4 5
comments
print report bad tab
guest
You may want to rate the tab now too:
select rating
Wanna post a correction for this tab? Suggest correction