Oops, an error
Loading. Please wait.

Marijuana Tab

version 1
version 1

Whole song

4,001 views 12 this week
no commentswrite comment
1 2 3 4 5
please rate
add to favorites
launch autoscroll
font size
0
reset
how to read this tab
guitar tuner
Tab Pro tools
  • play this tab
  • loop segment
  • change instrument
  • show fretboard
  • metronome
×
Best way to learn
"Marijuana"
Autoscroll
slow
fast
+/-
esc
set tempo
stop
Difficulty
novice
-------------------------------------------------------------------------------
                             Marijuana - Kid Cudi
-------------------------------------------------------------------------------
Tabbed by: Boumedal Kevin
E-mail: kboumedal@gmail.com

Tuning:Standard

e|---------------------------------------------------------------------------|
B|-------------------------------------------------------------------12------|
G|------------------4---6b8-----------4--6--6b7--4--6--8--11--11--13---11/13-|
D|-------------4--6---6-----4h6--4--6----------------------------------------|
A|--------4--6---------------------------------------------------------------|
E|-4---7---------------------------------------------------------------------|

e|---------------------------------------------------------------------------|
B|-15b16--12--11-----------------------------------------12--15b16-----------|
G|--------------11---------11--11/13--13----16p15--16p15-----------16p13-----|
D|----------------9----------------------------------------------------------|
A|-----------------11--------------------------------------------------------|
E|---------------------------------------------------------------------------|

e|---------------------------------------------------------------------------|
B|-----------------------------------------------------------------------19--|
G|-11--13--9--8--6------------------------13--13--13--15--16--18--20--21-----|
D|----------------9--6--9--11--13--14--16------------------------------------|
A|---------------------------------------------------------------------------|
E|---------------------------------------------------------------------------|

e|---------------------------------------------------------------------------|
B|-20--21--21b23--21p16--19--21----------------------------------------------|
G|-----------------------------18b20--16h18--16--13--11--13------------------|
D|---------------------------------------------------------12b13--10--7----7-|
A|---------------------------------------------------------------------------|
E|---------------------------------------------------------------------------|

e|---------------------------------------------------------------------------|
B|---------------------------------------------------------------------------|
G|---------------------------------------------------------------------------|
D|-6--9--11--9--13--16--18--21b23--18--20b21--18--20--18--16--16--13/16/18---|
A|---------------------------------------------------------------------------|
E|---------------------------------------------------------------------------|

e|---------------------------------------------------------------------------|
B|-15b17--12--11-------------------------------------------------------------|
G|--------------11-------11--11--9--8--8--6----------------------------------|
D|----------------13---9-------------------9--6--4/6/8b9--6--4--4/8b9--6--4--|
A|------------------11-------------------------------------------------------|
E|---------------------------------------------------------------------------|

e|---------------------------------------------------------------------------|
B|---------------------------------------------------------------------------|
G|---------------------------------------------------------------------------|
D|-4--4/8--8b9--6--4--8--6--9p6----------------------------------------------|
A|---------------------------------------------------------------------------|
E|---------------------------------------------------------------------------|


************************************

| /   slide up
| \   slide down
| h   hammer-on
| p   pull-off
| ~   vibrato
| +   harmonic
| x   Mute note
| b   Bend
| pb  Pre-bend
| br  Bend release
| pbr Pre-bend release
| brb Bend release bend

************************************
comments
We did not receive enough feedback on this tab! Please rate:
print report bad tab
1 2 3 4 5
I want to post or [tab]
guest
You may want to rate the tab now too:
select rating
Please do not post tabs as comments. Select "correction" instead!