Oops, an error
Loading. Please wait.

Pursuit Of Happiness Tab

version 1
version 1

Whole song

Interactive

92,331 views 87 this week
2 commentsread comments
1 2 3 4 5
x 35
add to favorites
launch autoscroll
font size
0
reset
how to read this tab
guitar tuner
Autoscroll
slow
fast
+/-
esc
set tempo
stop
Help us to improve Ultimate-Guitar.com Take our survey!
×
Author
Difficulty
-------------------------------------------------------------------------------
                             PURSUIT OF HAPPINESS - Kid Cudi
-------------------------------------------------------------------------------
Tabbed by: Unavailable User


Tuning: Standard

You may want to turn down the Tone on your guitar, or use the pick-up closer to the neck 
make it sound more like the real version.

Using a Wah-Wah pedal with the Wah all the way down also sounds nice.

Part 1
e|--------------------------------------------------|
B|-13-12-10-13-12-----------------------------------|
G|------------------9~~~--9/12-12~------------------|
D|--------------------------------------------------|
A|--------------------------------------------------|
E|--------------------------------------------------|

Repeat Part 1

Part 2
e|--------------------------------------------------|
B|--------------------------------------------------|
G|----9----10----14-12-10-9~\-----------------------|
D|-10---12----14--------------/10~--12--14-12~\-----|
A|----------------------------------------------/12~|
E|--------------------------------------------------|
        ---(The slides are optional)---

Repeat Part 1 (x2)

e|--------------------------------------------------|
B|----------------------------------------------/13~|
G|----9----10----14-12-10-9~\-----------------------|
D|-10---12----14--------------/10~--12--14-12~\-----|
A|--------------------------------------------------|
E|--------------------------------------------------|
        ---(The slides are optional)---

Please rate this tab! It's one of my first ones!


************************************

| /  Slide up
| ~  Vibrato

************************************
Suggest correction
comments
print report bad tab
2 comments total.
0 reply
BecomeOblivious 10 Dec 10, 2009 04:54 PM

perfect as perfect can get :')

great job

0 reply
AlexzGuitar08 10 Aug 22, 2010 03:50 AM

e|--------------------------------------------------|
B|----------------------------------------------/10~|
G|----9----10----14-12-10-9~\-----------------------|
D|-10---12----14--------------/10~--12--14-12~\-----|
A|--------------------------------------------------|
E|--------------------------------------------------|


Personally that's how I hear it. Everything else is spot on man, great job!

guest
You may want to rate the tab now too:
select rating
Wanna post a correction for this tab? Suggest correction