Oops, an error
Loading. Please wait.

Pursuit Of Happiness Tab

version 1
version 1

Whole song

Interactive

66,289 views 36 this week
4 commentsread comments
1 2 3 4 5
x 4
add to favorites
launch autoscroll
font size
0
reset
how to read this tab
guitar tuner
Autoscroll
slow
fast
+/-
esc
set tempo
stop
Help us to improve Ultimate-Guitar.com Take our survey!
×
Kid Cudi’s Pursuit of Happiness (Produced by RATATAT) off of Man on the Moon: The End of Day.

Bass line (repeat a whole bunch)
e-------------------------------|
B-------------------------------|
G-------------------------------|
D-------------------------------|
A--3----------------------------|
E-----5--0--0-------------------|

Other base line part
e-------------------------------|
B-------------------------------|
G-------------------------------|
D-----3--2----------------------|
A---3---------------------------|
E-------------------------------|


Guitar part (repeated a whole bunch)
e-------------------------------|
B--13-10------------------------|
G-------9-9---------------------|
D-------------------------------|
A-------------------------------|
E-------------------------------|

Other guitar part
e-------------------------------|
B-------------------------------|
G-------10--9-------------------|
D----10-------------------------|
A-------------------------------|
E-------------------------------|


Guitar solo
(repeat this first part twice, let the 9 and 12 on the G string ring a while)
e-------------------------------|
B-13-12-10-13-12----------------|
G-----------------9s---12-------|
D-------------------------------|
A-------------------------------|
E-------------------------------|

e-------------------------------------------------|
B-------------------------------------------------|
G-----9-----10----12---12-10-9--------------------|
D--10---12-----14----------------10-12-14-12------|
A---------------------------------------------12--|
E-------------------------------------------------|

The whole solo piece is played twice, but on the second/last time the last note is 13 on 
B string, not 12 on the A string.
Suggest correction
comments
print report bad tab
4 comments total. Showing first comments.
0 reply
Hunter Morris 349 Jan 19, 2010 12:15 PM

Other base line part should be
e-------------------------------|
B-------------------------------|
G-------------------------------|
D-----3-------------------------|
A---3----0----------------------|
E-------------------------------|

0 reply
Hunter Morris 349 Jan 19, 2010 12:17 PM

Oh and the guitar part should be
e-------------------------------|
B-------------------------------|
G-------10----------------------|
D----10-------------------------|
A-----------12------------------|
E-------------------------------|

-1 reply
Taylor Jordan 10 Feb 12, 2010 10:35 PM

The artist who made the guitar part of the song was MGMT...you should mention them by Kid Cudi in the name of the song.

guest
You may want to rate the tab now too:
select rating
Wanna post a correction for this tab? Suggest correction