Oops, an error
Loading. Please wait.

The Prayer Tab

version 5
version 5

Whole song

Interactive

1,817 views 1 this week
1 commentread comment
1 2 3 4 5
3 more votes to show rating
add to favorites
launch autoscroll
font size
0
reset
how to read this tab
guitar tuner
Autoscroll
slow
fast
+/-
esc
set tempo
stop
Help us to improve Ultimate-Guitar.com Take our survey!
×
Author
Difficulty
novice
Repeat this throughout the whole song. The chords are F#,C#,G#,A#m

e|----------------------------------------------------------------------------|
B|-------12-----------9---------4--------6------------------------------------|
G|----13----13-----10---10----5---5----6---6----------------------------------|
D|-14-----------11----------6--------8----------------------------------------|
A|----------------------------------------------------------------------------|
E|----------------------------------------------------------------------------|
Suggest correction
Give kudos to tab author, rate the tab!
1 2 3 4 5
comments
print report bad tab
1 comment total.
0 reply
bassplayer9109 10 Jul 30, 2015 09:09 PM

The first chord is off, it should be

e|----------------------
B|-----------14---------
G|------15--------15----
D|--16------------------
A|----------------------
E|----------------------

Sounds great and easy to play without changing your fingers much at all.

guest
You may want to rate the tab now too:
select rating
Wanna post a correction for this tab? Suggest correction