Oops, an error
Loading. Please wait.

Im Going Down tab

40 views 6 this week
no commentswrite comment
1 2 3 4 5
3 more votes to show rating
add to favorites
×
Save as Personal and add changes to this tab that will be seen only by you. Learn more ›
×
You can save this tab as Personal to edit and correct it or add notes. All changes will be seen only by you. Learn more »
launch autoscroll
font size
0
reset
how to read this tab
guitar tuner
edit
Autoscroll
slow
fast
+/-
esc
set tempo
stop
About this tab version
Chord chart with detailed tabs for melodic parts. Was this info helpful? Yes No
Artist: Florence Welch & Kid Harpoon
Song: im going down

You can play the chords slightly broken/arpeggiated for the effect of the song at some points.

[Verse 1]
E|--------------------------------------------------|
B|--------------------------------------------------|
G|-----4-----4-----4-----4--------------------------|
D|-----4-----4-----4-----4--------------------------|
A|--2-----2-----2-----2--------4-----4-----4-----4--|
E|--------------------------2-----2-----2-----2-----|
We sit in the car outside your house

E|--------------------------------------------------|
B|--------------------------------------------------|
G|--------------------------------------------------|
D|--------------------------------------------------|
A|-----6-----6-----6-----6-----2-----2-----2-----2--|
E|--4-----4-----4-----4-----0-----0-----0-----0-----|
I can feel the heat comin' round

E|--------------------------------------------------|
B|--------------------------------------------------|
G|-----4-----4-----4-----4--------------------------|
D|-----4-----4-----4-----4--------------------------|
A|--2-----2-----2-----2--------4-----4-----4-----4--|
E|--------------------------2-----2-----2-----2-----|
I go to put my arm around you

E|--------------------------------------------------|
B|--------------------------------------------------|
G|--------------------------------------------------|
D|--------------------------------------------------|
A|-----6-----6-----6-----6-----2-----2-----2-----2--|
E|--4-----4-----4-----4-----0-----0-----0-----0-----|
And you give me a look like I'm way out of bounds

E|--------------------------------------------------|
B|--------------------------------------------------|
G|-----4-----4-----4-----4--------------------------|
D|-----4-----4-----4-----4--------------------------|
A|--2-----2-----2-----2--------4-----4-----4-----4--|
E|--------------------------2-----2-----2-----2-----|
Well you let out one of your bored sighs

E|--------------------------------------------------|
B|--------------------------------------------------|
G|--------------------------------------------------|
D|--------------------------------------------------|
A|-----6-----6-----6-----6-----2-----2-----2-----2--|
E|--4-----4-----4-----4-----0-----0-----0-----0-----|
Well lately when I look into your eyes

[Chorus]
          B                 F#
I'm goin down, down, down, down
          B           E
I'm goin down, down, down, down
          B                 E
I'm goin down, down, down, down
         G#m                E
I'm goin down, down, down, down

[Verse 2]
B                     F#       G#m      E
We get dressed up and we go out, baby, for the night
B                    F#                G#m             E
 We come home early burning, burning, burning in some fire fight
B                           F#
 I'm sick and tired of you setting me up yeah
 G#m                   E
Setting me up just to knock-a knock-a knock-a me down


[Chorus]
 B                 F#
down, down, down, down
          B           E
I'm goin down, down, down, down
          B                 E
I'm goin down, down, down, down
         G#m                E
I'm goin down, down, down, down

[Interlude]
Ooo...
B F# G#m E
Ooo...
B F# G#m E

B                    F#  G#m           B          E
I pull you close now baby but when we kiss I can feel a doubt
B                 F#
 I remember back when we started
G#m                          E
  My kisses used to turn you inside out
B                         F#
  I used to drive you to work in the morning
G#m                           E
  Friday night I'd drive you all around
B                      F#
  You used to love to drive me wild yeah
G#m                             E
  But lately girl you get your kicks from just driving me

[Chorus]
 B                 F#
down, down, down, down
          B           E
I'm goin down, down, down, down
          B                 E
I'm goin down, down, down, down
         G#m                E
I'm goin down, down, down, down

[Chorus]
          B                 F#
I'm goin down, down, down, down
          B           E
I'm goin down, down, down, down
          B                 E
I'm goin down, down, down, down
         G#m                E
I'm goin down, down, down, down

[Chorus]
          B                 F#
I'm goin down, down, down, down
          B           E
I'm goin down, down, down, down
          B                 E
I'm goin down, down, down, down
         G#m                E
I'm goin down, down, down, down

[Outro]
E|--0--2--0--2--|
B|--0--------4--|
G|--1--------4--|
D|--2--------4--|
A|--2--------2--|
E|--------------|

            
            
Suggest correction
Creating personal tab
Creating personal tab
You can edit any tab online and save it as your Personal.

You can edit, replace or remove any tab part or add personal notes – all changes will be seen only by you.

Personal tabs can be accessed anytime from any device, even offline.
Learn more »
Give kudos to tab author, rate the tab!
1 2 3 4 5
comments
print report bad tab
guest
You may want to rate the tab now too:
select rating
Wanna post a correction for this tab? Suggest correction