Oops, an error
Loading. Please wait.

Be Real tab

by Kid Ink
190 views 6 this week
no commentswrite comment
1 2 3 4 5
2 more votes to show rating
add to favorites
×
Save as Personal and add changes to this tab that will be seen only by you. Learn more ›
×
You can save this tab as Personal to edit and correct it or add notes. All changes will be seen only by you. Learn more »
launch autoscroll
font size
0
reset
how to read this tab
guitar tuner
edit
Autoscroll
slow
fast
+/-
esc
set tempo
stop
Author
Be Real
Kid Ink

Chords:

Am x02210
C  x32010
F  133211
Em 022000


[Intro]

e|--------------------------|--------------------------------|
B|--------------------------|--------------------------------|
G|--------------------------|--------------------------------|
D|--------------------------|--------------------------------|
A|---0--3--------------0----|---0--3--------------0----------|
E|---------1-----1--0-------|---------1-----1--0-------------|

 (plays in the background behind the chords)
e|-----------------------|--------------------------------
B|--------1-------1------|--------1-------1---------------
G|------2-------2--------|------2-------2-----------------
D|----2-------2----------|----2-------2-------------------
A|--0-------0------------|--0-------0---------------------
E|-----------------------|--------------------------------

              Am  C  F                F  Em  Am
You ain't got no whip, you ain't got no bottle
             Am  C   F               F  Em  Am
Let's just be honest, let's just be real
               Am C  F               F  Em Am
You ain't got no cash, you ain't got no dollas
                Am  C  F             F  Em   Am
You stay with that drama, let's just be real
              Am   C   F           F   Em   Am
Let's just be honest, let's just be real
             Am             F   Em    Am
Let's just be honest, let's just be real


[Verse]

e|--------------------------------------|
B|--------------------------------------|
G|--------5--5--------------------2-----|
D|--------------3-----3--3--2--2--------|
A|---0-0--------------------------------|
E|--------------------------------------|

Uh, just keep it real with ya
You the only nigga here feeling yourself
Walk in, them bitches start filming
They sittin' with a man, thotty ass still grinning, it's on
Honest, so hot, mind on a comet
Fast life sometimes feel like I'm in a comic
I don't give a fuck, bitch with or without a condom
Fat joke, pockets lean back like a recliner

e|--------------------------|--------------------------------|
B|--------------------------|--------------------------------|
G|--------------------------|--------------------------------|
D|--------------------------|--------------------------------|
A|---0--3--------------0----|---0--3--------------0----------|
E|---------1-----1--0-------|---------1-----1--0-------------|

I'm in this, representing West Side
Lotta people try to tell me I'm the next guy
Batgang, got it tatted by my left eye
Chain gang over here, no neck tie

e|--------------------------------------|
B|--------------------------------------|
G|--------5--5--------------------2-----|
D|--------------3-----3--3--2--2--------|
A|---0-0--------------------------------|
E|--------------------------------------|

Bitch you know I'm all about the business
From beginning to the ending never simpin', never slippin'
Sippin' P-A-T-R-O-to the-N
And if I'm in the building know it's complaints from the tenants
On the real

e|--------------------------|--------------------------------|
B|--------------------------|--------------------------------|
G|--------------------------|--------------------------------|
D|--------------------------|--------------------------------|
A|---0--3--------------0----|---0--3--------------0----------|
E|---------1-----1--0-------|---------1-----1--0-------------|

You could call anyone you want
I'ma kill 'em all, bet on it
Said we the only ones that stuntin' now
Let's just be real


[Hook]

              Am C F          F  Em  Am 
Let's just be honest, let's just be real
              Am   C  F       F   Em  Am
Yeah let's just be honest, let's just be real
             Am    C    F       F  Em  Am
Let's just be honest, we all know the deal
                Am         F    Em    Am
So let's just be honest, let's just be real


[Verse]

e|--------------------------------------|
B|--------------------------------------|
G|--------5--5--------------------2-----|
D|--------------3-----3--3--2--2--------|
A|---0-0--------------------------------|
E|--------------------------------------|

Uh, slow down babe, it's enough, to go round back
Been drinkin' like you thirsty
How you make it to my section in the first place
Nah, I ain't trippin', shit is nada
They say it ain't trickin' if you got it
Bitch I'm a boss like Gotti
Rock Tom Ford and I still pop Molly

e|--------------------------|--------------------------------|
B|--------------------------|--------------------------------|
G|--------------------------|--------------------------------|
D|--------------------------|--------------------------------|
A|---0--3--------------0----|---0--3--------------0----------|
E|---------1-----1--0-------|---------1-----1--0-------------|

Roll up good Cali, ladeedadee
It's just me and all my hommies
At your door like the shining, egh
Feel like can't nobody stop me, I'm a hot nigga

e|--------------------------------------|
B|--------------------------------------|
G|--------5--5--------------------2-----|
D|--------------3-----3--3--2--2--------|
A|---0-0--------------------------------|
E|--------------------------------------|

And the bitch that I'm with know she hot stuff
Pull up in the hot wheels, ballin' get yo hops up
If you got a problem need a hotline
9-1-1 but we don't ever call the cops, for real

e|--------------------------|--------------------------------|
B|--------------------------|--------------------------------|
G|--------------------------|--------------------------------|
D|--------------------------|--------------------------------|
A|---0--3--------------0----|---0--3--------------0----------|
E|---------1-----1--0-------|---------1-----1--0-------------|

You could call anyone you want
I'ma kill 'em all, bet on it
Said we the only ones that stuntin' now
Let's just be real


[Hook]

              Am C F          F  Em  Am 
Let's just be honest, let's just be real
              Am   C  F       F   Em  Am
Yeah let's just be honest, let's just be real
             Am    C    F       F  Em  Am
Let's just be honest, we all know the deal
                Am         F    Em    Am
So let's just be honest, let's just be real
Suggest correction
Creating personal tab
Creating personal tab
You can edit any tab online and save it as your Personal.

You can edit, replace or remove any tab part or add personal notes – all changes will be seen only by you.

Personal tabs can be accessed anytime from any device, even offline.
Learn more »
Give kudos to tab author, rate the tab!
1 2 3 4 5
comments
print report bad tab
guest
You may want to rate the tab now too:
select rating
Wanna post a correction for this tab? Suggest correction