Oops, an error
Loading. Please wait.

Wenn Ich Dich Gefunden Hab Tab

2,121 views 1 this week
no commentswrite comment
1 2 3 4 5
please rate
add to favorites
launch autoscroll
font size
0
reset
how to read this tab
guitar tuner
Tab Pro tools
  • play this tab
  • loop segment
  • change instrument
  • show fretboard
  • metronome
×
Best way to learn
"Wenn Ich Dich Gefunden Hab"
Autoscroll
slow
fast
+/-
esc
set tempo
stop
Contributor
Difficulty
Capo
novice
2nd fret
-------------------------------------------------------------------------------
                WENN ICH DICH GEFUNDEN HAB - KID KOPPHAUSEN
-------------------------------------------------------------------------------
Tabbed by: famousframes
E-mail: hello [at] famousframes.de

Tuning: Standard, Capo 2nd fret


Intro & Verse:

e|--0--0--0--0-----------|
B|--1--1--1--1-----------|
G|--0--0--2--0-----------|
D|--2--0--2--0-----------|
A|--3--2--0--2-----0--2--|
E|-----------3--3--------|

"Wenn ich Dich gefunden hab, bringst Du mich dann nach Haus ..."


Pre-chorus:

e|--1--3--|
B|--1--0--|
G|--2--0--|
D|--3--0--|
A|--3--2--|
E|--1--3--|

"Diese Welt voller Farben, wunderschön und nie trist.
Alles was blieb ist der Rahmen aus dem sie gefallen ist."



Chorus:

e|--0--0--0--3--|:(3x)
B|--1--1--1--0--|
G|--0--0--2--0--|
D|--2--0--2--0--|
A|--3--2--0--2--|
E|-----------3--|

"Auf all meine Fragen..."

e|--1--3--|
B|--1--3--|
G|--2--0--|
D|--3--0--|
A|--3--2--|
E|--1--3--|

"...Doch jetzt find ich den Weg nicht mehr zurück."


Bridge:

e|--1--3--0--0-----1--1--|
B|--1--0--0--1--1--1--1--|
G|--2--0--1--2--0--2--1--|
D|--3--0--2--2--0--3--3--|
A|--3--2--2--0--2--3--3--|
E|--1--3--0--------1--1--|

"Ich weiß die Chancen stehen schlecht..."
comments
We did not receive enough feedback on this tab! Please rate:
print report bad tab
1 2 3 4 5
I want to post or [tab]
guest
You may want to rate the tab now too:
select rating
Please do not post tabs as comments. Select "correction" instead!