Oops, an error
Loading. Please wait.

All Summer Long Tab

version 1
version 1

Whole song

Interactive

322,871 views 120 this week
17 commentsread comments
1 2 3 4 5
x 40
add to favorites
launch autoscroll
font size
0
reset
how to read this tab
guitar tuner
Autoscroll
slow
fast
+/-
esc
set tempo
stop
Help us to improve Ultimate-Guitar.com Take our survey!
×
Author
Difficulty
intermediate
[Intro] x4 on album version
e||--------------------||
B||o------------------o||
G||--------------------||
D||--7-7---5-5---------||
A||o-5-5---3-3---5-5--o||
E||--------------3-3---||

 [Verse] x4
e||-------------------||
B||o-----------------o||
G||-------------------||
D||--7-7---5-5--------||
A||o-5-5---3-3---5-5-o||
E||--------------3-3--||

 [Intro to verse 2]
e|-----------------------------------|---------------------------------------|
B|-----------------------------------|------------------------13---13--------|
G|-14b-14vvv--12b-12vvv--7-7-9-7---7-|-14b-14vv-12b-12vvv--14b--14b--14b-12v-|
D|------------------------------7h9--|---------------------------------------|
A|-----------------------------------|---------------------------------------|
E|-----------------------------------|---------------------------------------|

(for verse 2 you can play the chords in verse 1 or you can the licks listed below)

e|-------------|--------3-|-------------|
B|-------------|------3-3-|---7-9b-7vv--|
G|-------------|-----4----|-/9----------|
D|----5-7b-7vv-|-/5-5-----|-------------|
A|-5h7---------|----------|-------------|
E|-------------|----------|-------------|

 [Chorus] x3
e||--10---10--10---10--10----10--10----10--10-----||-17b-17-17p15-15vv-||
B||o-10h12----10h12----10h12-----10h12-----10h12-o||-------------------||
G||-----------------------------------------------||-------------------||
D||-----------------------------------------------||-------------------||
A||o---------------------------------------------o||-------------------||
E||-----------------------------------------------||-------------------||

e||--10---10--10---10--10---10--10---10--10-----|-|
B||o-10h12----10h12----10h12----10h12----10h12-o|-|
G||---------------------------------------------|-|
D||---------------------------------------------|-|
A||o-------------------------------------------o|-|
E||---------------------------------------------|-|

e|-15b-15-15p13------------------------|
B|-------------15-15b-15-15p13---------|
G|----------------------------15-12vvv-|
D|-------------------------------------|
A|-------------------------------------|
E|-------------------------------------|

 [Intro to verse 3] x2
e||------------------------||
B||o----3------3--------3-o||
G||------2------2-------2--||
D||--0-0----------------0--||
A||o--------3-3---------0-o||
E||-----------------3-3----||

[Verse 3] x2
(For verse 3 either play the chords shown in verse 1 or play the lick shown in verse 2.  
that repeat the chorus then play wat is shown below)

e||--------------------------||
B||o----3-------3--------3--o||
G||------2-------2-------2---||
D||--0-0-----------------0---||
A||o---------3-3---------0--o||
E||----------------3-3-------||

 Solo:
e||-13b-13-10h13p10-------------------------------------------------|
B||----------------13-10-13b---13-10----13----13----13----13--------|
G||----------------------------------12b---12b---12b---12b---12bp10-|
D||-----------------------------------------------------------------|
A||-----------------------------------------------------------------|
E||-----------------------------------------------------------------|

e|-----------------------------------------------------------|
B|-----------------------------------------------------------|
G|-12b-10--10--12b-10--10--12b-10--10------------------------|
D|-------12----------12----------12----12-10-12p10-----------|
A|------------------------------------------------12p10------|
E|-----------------------------------------------------12-10-|

(If you are using the youtube music video for this song
it cuts out the next 4 bars but on the album version the next
4 bars in the song

e|--------------------------------------------------------9*-----|
B|-------------------------------10b-10-8-10-8-------------------|
G|---7-7\---7-7\---7-7-9-9bp7-7---------------9bp7-7---7-9---7vv-|
D|-/9----/9------/9----------------------------------/9-----9----|
A|---------------------------------------------------------------|
E|---------------------------------------------------------------|

e|-----------------------------------------------------------------------|
B|----10-13p10---10-13p10----10-13p10---10-13p10----10-13p10----10-13p10-|
G|-12b--------12b---------12b--------12b---------12b---------12b---------|
D|-----------------------------------------------------------------------|
A|-----------------------------------------------------------------------|
E|-----------------------------------------------------------------------|

e|----------------------------10-13p10--10-13p10--10-13p10--10-13p10-|
B|----10-13p10---10-13p10---10--------10--------10--------10---------|
G|-12b--------12b----------------------------------------------------|
D|-------------------------------------------------------------------|
A|-------------------------------------------------------------------|
E|-------------------------------------------------------------------|

e|---10-13p10--10-13p10--10-13-10--10-13p10----13b-13-------------|
B|-10--------10--------10--------10------------------13p10--------|
G|--------------------------------------------------------12-10vv-|
D|----------------------------------------------------------------|
A|----------------------------------------------------------------|
E|----------------------------------------------------------------|

e|-----------------------------------------10-----|
B|---------------------------------------10r--13b-|
G|---------12--12b-10--10----------12-12b---------|
D|---------12--------12------------12-------------|
A|-10h12-10----------------10h12-10---------------|
E|------------------------------------------------|

e|---10-13p10--15p10--13p10--15p10--13p10---10-15p13p10--------------------||
B|-10--------10-----10-----10-----10------10-----------13-10-13b-10--------||
G|-----------------------------------------------------------------12b-10vv||
D|-------------------------------------------------------------------------||
A|-------------------------------------------------------------------------||
E|-------------------------------------------------------------------------||

 [Intro to verse 4]
e|------------------------------------------------------------------------|
B|---------------------------------------------------------15--15---------|
G|-14b-14vv--12b-12vvv--7-7-9-7---7v--14b-14v--12b-12v--14b--14--14b-12vv-|
D|-----------------------------7h9----------------------------------------|
A|------------------------------------------------------------------------|
E|------------------------------------------------------------------------|

(play the chords in verse 1 again then repeat the chorus and then play the chord in verse 
till the end of the song)


************************************
 
p=pull off
h=hammer on
v=vibrato
/=slide
b=bend
*=harmonic
o=repeat
r=roll 

************************************
Suggest correction
comments
print report bad tab
17 comments total. Showing first comments.
+2 reply
No_way_back 126 Jul 05, 2008 02:02 PM

Sounds pretty good (:

+2 reply
hunterwojak 10 Jul 19, 2008 12:39 AM

the solos all wrong

+3 reply
Oneill9293 61 Jul 26, 2008 10:00 AM

No hunterwojak, you're wrong :)

guest
You may want to rate the tab now too:
select rating
Wanna post a correction for this tab? Suggest correction