Oops, an error
Loading. Please wait.

All Summer Long Bass Tab

version 2
version 2

Whole song

Interactive

11,478 views 18 this week
no commentswrite comment
1 2 3 4 5
excellent!
x 5
add to favorites
launch autoscroll
font size
0
reset
guitar tuner
Autoscroll
slow
fast
+/-
esc
set tempo
stop
Help us to improve Ultimate-Guitar.com Take our survey!
×
Contributor
Difficulty
novice
G---------------------------------------------------------------------------|
D---5-5-5-------------------------------------------------------------------|
A----------5-5-5-5-3-3-3-3-------------------5-5-5-5-3-3-3-3----------------|
E---------------------------3-3-3-3-3-3-5h7---------------------------------|

G---------------------------------------------------------------------------|
D---------------------------------------------------------------------------|
A-------------0-2-3-5-5-5-5-3-3-3-3-----------------5-5-5-5-5-3-3-3-3-------|
E-3-3-3-3-3-3-----------------------3-3-3-3-3-3-5H7-------------------------|

VERSE STARTS HERE
G----------------------------------------------------------------------------|
D----------------------------------------------------------------------------|
A-------------0-2-3-5-5---3-3-------------------7-5--5---3-3-----------0-2-3-|
E-3-3-3-3-3-3------------------3-3---3----3-5H7--------------3-3--3---3------|


                                                       TRANSITION
G---------------------------------------------------------------------------|
D---------------------------------------------------------------------------|
A-5-5---3-3-----------------7-5-5--3-3----------0-2-3--5-5-5-5-3-3-3-3------|
E------------3-3--3---3-5H7------------3-3--3--3----------------------------|

                                                        VERSE
G--------------------------------------------------------------------------|
D--------------------------------------------------------------------------|
A-----------------5--5-5-5-5-3-3-3-3-------------0-2-3--5-5--3-3-----------|
E-3-3-3-3-3-3-5H7--------------------3-3-3-3-3-3---------------------------|

G--------------------------------------------------------------------------|
D--------------------------------------------------------------------------|
A-----------------7--5-5--3-3-------------0-2-3--5-5--3-3----------------7-|
E-3-3--3----3-5H7--------------3-3--3---3-----------------3-3--3---3-5H7---|

G--------------------------------------------------------------------------|
D--------------------------------------------------------------------------|
A-5-5--3-3----------0-2----------------------------------------------------|
E----------3-3--3--3-------------------------------------------------------|


CHORUS:
G------------------------------------|
D------------------------------------|
A-5-5-5-5-3-3-3------------------7/9-|
E--------------2-3-3-3-3-3-3-5H7-----|

G------------------------------------|
D------------------------------------|
A-5-5-5-5-3-3-3------------------5---|
E--------------2-3-3-3-3-3-3-5H7-----|


G------------------------------------|
D------------------------------------|
A-5-5-5-5-3-3-3------------------7/9-|
E--------------2-3-3-3-3-3-3-5H7-----|


BRIDGE:
4 BEATS YOU REST DURING THIS PART


VERSE :


G----------------------------------------------------------------------------------|
D----------------------------------------------------------------------------------|
A-5-5--3-3----------------7--5-5--3-3-------------0-2-3--5-5--3-3----------------7-|
E---------3-3--3----3-5H7--------------3-3--3---3-----------------3-3--3---3-5H7---|

G--------------------------------------------------------------------------|
D--------------------------------------------------------------------------|
A-5-5--3-3----------0-2----------------------------------------------------|
E----------3-3--3--3-------------------------------------------------------|


CHORUS :

G------------------------------------|
D------------------------------------|
A-5-5-5-5-3-3-3------------------7/9-|
E--------------2-3-3-3-3-3-3-5H7-----|

G------------------------------------|
D------------------------------------|
A-5-5-5-5-3-3-3------------------5---|
E--------------2-3-3-3-3-3-3-5H7-----|


G------------------------------------|
D------------------------------------|
A-5-5-5-5-3-3-3------------------7/9-|
E--------------2-3-3-3-3-3-3-5H7-----|

G------------------------------------|
D------------------------------------|
A-5-5-5-5-3-3-3------------------5---|
E--------------2-3-3-3-3-3-3-5H7-----|


BRIDGE :
REST FOR 3 MEASURES THEN ON THE FORTH MEASURE YOU HIT A WHOLE NOTE FOR COUNT OF 4 THIS 
INTO THE BREAK

G------------------------------------|
D------------------------------------|
A------------------------------------|
E--------------------------3---------|

GUITAR SOLO PART :

G---------------------------------------------------------------------------------------|
D---------------------------------------------------------------------------------------|
A-5-5---3-3-----------------7--5-5----3------------0-2-3--5-5---3-3-------------------7-|
E-----------3-3--3----3-5H7-------------3-3--3---3---------------------3-3--3---3-5H7---|

G----------------------------------------------------------------|
D----------------------------------------------------------------|
A-5-5---3-3-----------0-2-3--5-5--3-3---------------7--5-5---3-3-|
E-----------3-3--3---3---------------3-3--3---3-5H7--------------|

G-----------------------------------------------------------------------|
D-----------------------------------------------------------------------|
A-----------0-2-3--5-5--3-3----------------7--5-5---3-3-----------0-2-3-|
E-3-3--3---3----------------3-3--3---3-5H7--------------3-3--3---3------|

TRANSITION :

G-----------------------------------------------------------------|
D-----------------------------------------------------------------|
A-5-5-5-5-3-3-3-3-----------------5-5-5-5-3-3-3-3-----------0-2-3-|
E-----------------3-3-3-3-3-3-5H7----------------3-3-3-3-3-3------|


VERSE: REST AGAIN FOR 7 MEASURES THEN ON THE 8TH YOU COME IN AGAIN WITH THE WHOLE NOTE 
THE 4 COUNT THEN HIT IT AGAIN SO 3RD FRET E STRING COUNT TO 4 THEN HIT IT AGAIN FOR A 
COUNT

G-----------------------|
D-----------------------|
A-----------------------|
E-------------------3-3-|


CHORUS:

G------------------------------------|
D------------------------------------|
A-5-5-5-5-3-3-3------------------7/9-|
E--------------2-3-3-3-3-3-3-5H7-----|

G------------------------------------|
D------------------------------------|
A-5-5-5-5-3-3-3------------------5---|
E--------------2-3-3-3-3-3-3-5H7-----|


G------------------------------------|
D------------------------------------|
A-5-5-5-5-3-3-3------------------7/9-|
E--------------2-3-3-3-3-3-3-5H7-----|

G------------------------------------|
D------------------------------------|
A-5-5-5-5-3-3-3------------------5---|
E--------------2-3-3-3-3-3-3-5H7-----|


PIANO SOLO :

G-------------------------------------|
D-------------------------------------|
A-5-5--3-3----------------7--5-5--3-3-|
E----------3-3--3---3-5H7-------------|

G-------------------------------------------------------------------|
D-------------------------------------------------------------------|
A-----------0-2-3-5-5--3-3----------------7-5-5--3-3----------0-2-3-|
E-3-3--3---3----------------3-3--3--3-5H7------------3-3--3--3------|

PLAYED FIGURED OUT AND TABBED BY CRUE aka Ya THAT bass player
comments
print report bad tab
I want to post or [tab]
guest
You may want to rate the tab now too:
select rating
Please do not post tabs as comments. Select "correction" instead!