Oops, an error
Loading. Please wait.

Bawitdaba Tab

version 4
version 4

Whole song

Interactive

18,312 views 24 this week
12 commentsread comments
1 2 3 4 5
x 8
add to favorites
launch autoscroll
font size
0
reset
how to read this tab
guitar tuner
Autoscroll
slow
fast
+/-
esc
set tempo
stop
Help us to improve Ultimate-Guitar.com Take our survey!
×
Song:Bawitdaba
Band:Kid Rock
Album:Devil Without A Cause
Transcribed By:Matthew Resnick

Tuning:Standard
Tempo:91

~-Vibrato
pm-Palm Mute
\-Slide Down
/-Slide Up
x-Muted Note
()-Ghost Note
h- Hammer On
^-Whammy Bar Bend
b-Bend

E---------|
B---------|
G--9------|play this for the intro
D---------|
A--7------|
E---------|

After the "my name is kid" part
E-0-0-0-0-0--0-0--0-0-0-0-0-0-0-|-6-6-6-6-6--6-6--6-6-6-6-6-6-0-|
B-5-5-5-5-5--5-5--5-5-5-5-5-5-5-|-5-5-5-5-5--5-5--5-5-5-5-5-5-5-|
G-------------------------------|-------------------------------| 

E-0-0-0-0-0--0-0--0-0-0-0-0-0-0-|-6--6-6-6-6-6-6--6-6-6-6-6-----|
B-5-5-5-5-5--5-5--5-5-5-5-5-5-5-|-5--5-5-5-5-5-5--5-5-5-5-5-----|
G-------------------------------|---------------------------0-0-|
D-------------------------------|---------------------------0-0-|

Chorus
E-------------------------------|----------------------------------------------|
B-------------------------------|---------------------------0------------------|
G-------------------------------|-----------------------------------0----------|
D--2--2-------5\--2-------5-----|--2--2-------5---5\3-----------------------3--|
A--2--2-------5\--2-------5-----|--2--2-------5---5\3-----------------------3--|
E--0--0----0--3\--0----0--3-----|--0--0----0--3---3\1-----------------------1--|
pm|---------|  pm|------|	pm|---------|       let ring-----------------|

D--2--2-------5-----2--2-------5---(5)\-|-2--2----2--5--------3---3----3---3-|
A--2--2-------5-----2--2-------5---(5)\-|-2--2----2--5--------3---3----3---3-|
E--0--0----0--0-----0--0----0--3---(3)\-|-0--0----0--3-----0--1---1----1---1-|
pm|---------|    pm|---------|         pm|---------|    pm|-----------------|

E---------------------------------------|--------------------------------------------|
B--3--3----X--3----3--3----X--3---3--3--|-3--3----X--3--------------0----------------|
G--3--3----X--3----3--3----X--3---3--3--|-3--3----X--3--------------------0----0---0-|
D---------------------------------------|--------------------------------------3---3-|
A---------------------------------------|-----------------------3--------------3---3-|
E---------------------------------------|------------------0h1-----------------1---1-|
							let ring--------------------|	

E---------------------------------------|--------------------------------------------|
B--3--3----X--3----3--3----X--3---3--3--|-3--3----X--3-------------------------------|
G--3--3----X--3----3--3----X--3---3--3--|-3--3----X--3-------------------------------|
D---------------------------------------|---------------------3------3------3------3-|
A---------------------------------------|---------------------3------3------3------3-|
E---------------------------------------|------------------0--1------1------1------1-|

Verses
Gtr.1
E-----------------------------------|-----------------------------------------|
B-----------------------------------|-----------------------------------------|
G-----------------------------------|-----------------------------------------|
D-----------------------------------|-----------------------------------------|
A------------------------------5h7--|-----------------------------------------|
E--0-----------------------0--------|-0---------------0---------------3h5--3h5|

D---------------------------------------------|
A-----------------------------------------5h7-|
E-0------------0-----0-----0-----0------------|

D-----------------------------------|------------------------------------|
A-------------------------------5h7-|------------------------------------|
E-0----------0----0---0---0---------|-0-----------0---0---0---0--3h5-3h5-|

Gtr. 2								    
E-----------------------------------|---------------------------------------------|
B-----------------------------------|---------------------------------------------|
G-------9-9-9--------------9-9\7-7-7|-7/12---12-12--12-12/15-15----(15)^(15)^(15)-|
D-----------------------------------|---------------------------------------------|
A-------7-7-7--------------7-7\5-5-5|-5/10---10-10--10-10/13-13----(13)^(13)^(13)-|
E--0--------------------------------|---------------------------------------------|

Gtr. 1
D-----------------------------------|---------------------------------------------|
A--------------------------------5h7|---------------------------------------------|
E-0------------0---0---0---0--------|-0------------0-----0-----0---0--3h5--3h5----|

Breakdown
D-2--2----2----2--2--2----2-------------|-2--2----2----2--2--2---------|w\ flanger after twice
A-2--2----2----2--2--2----2-------------|-2--2----2----2--2--2---------|
E-0--0----0----0--0--0----0----0--3b----|-0--0----0----0--0--0---------|
	       pm|-|				    pm|----|
Not that much else left so I didn't put it down. It's mostly other parts already in the song.
Suggest correction
comments
print report bad tab
12 comments total. Showing first comments. show 3 bad comments
guest
You may want to rate the tab now too:
select rating
Wanna post a correction for this tab? Suggest correction