Oops, an error
Loading. Please wait.

Born Free Tab

version 1
version 1

Whole song

Interactive

70,071 views 105 this week
7 commentsread comments
1 2 3 4 5
excellent!
x 16
add to favorites
launch autoscroll
font size
0
reset
how to read this tab
guitar tuner
Tab Pro tools
  • play this tab
  • loop segment
  • change instrument
  • show fretboard
  • metronome
×
Best way to learn
"Born Free"
Autoscroll
slow
fast
+/-
esc
set tempo
stop
Contributor
Difficulty
novice
Intro Riff:
E---------------------------------------------I
B---7/9-10-9-7-5--7/9-10-9-7-5-5-5-5h7p5-5----I
G-----------------------------6---------6-4---I
D---------------------------------------------I
A---------------------------------------------I
E---------------------------------------------I

Chorus Riff:
E---------------------------------------------I
B---------------------------------------------I
G---------------------------------------------I
D---7-6-4--7-6-4----------7-6-4---------------I
A--------7------7--------------7--------------I
E-----------------5-4-2-0---------------------I

E
Fast, on a rough road riding
High, through the mountains climbing
A                                E
twisting,turning further from my home
E
Young, like a new moon rising
Fierce, through the rain and lightning
A                                E
Wandering out into the great unknown
      F#m                               A
And I don't want know one to cry, but tell em'
if I don't survive

Chorus:
      E
I was Born Free
I was Born Free
      A           E
I was Born Free, Born Free

E
Free, like a river raging
Strong, if the wind I'm facing
A                                  E
Chasing dreams and racing fathered time
E
Deep, like the grandest canyon
Wild, like an untamed stallion
A                                     E
If you can't see my heart you must be blind
        F#m
You can knock me down and watch me bleed
        A
But you can't keep no chains on me

(Chorus)

        Db                              D                 A
And I'm not good at long good byes, but look down deep into my eyes
      E
I was Born Free

Lead played over - E E A E Db D A (Listen to recording for changes)

E---A

E
Calm, facing danger
Lost, like an unknown stranger
A                              E
Grateful for my time with no regrets
E
Close to my destination
Tired, frail and aching
A                               E
Waitin patiently for the sun to set
              F#m
And when it's done believe that I,
A aaaaaaaaaaaaaaaaaaaaaaaaaaaaaaaaaaaa
will yell it from that highest mountain high

(Chorus)

Db                                      D               A
And I will vow to the shinning seas and celebrate God's Grace on me

(Chorus) repeat  until end

comments
print report bad tab
7 comments total. Showing first comments.
-1 reply
geoffbaz wrote on November 27 2010, 04:40 pm

I think the intro might go like this:

e-------------------------------------------------|
B---7/9-10-9-7-5---7/9-10-9-7-5-------------------|
G--------------------------------4/6-7-6-4-2-4----|
D-------------------------------------------------|
A-------------------------------------------------|
E-------------------------------------------------|

And the chorus leads go like this:

e-------------------------------------------------|
B---10-9-7-5--10-9-7-5-----------10-9-7-5---------|
G-----------------------7-6-4-2-------------------|
D-------------------------------------------------|
A-------------------------------------------------|
E-------------------------------------------------|

The chords all sound pretty good.
Good job!!

0 reply
ryanbuu110 wrote on February 12 2011, 04:52 pm

hey good job on the tab but i gotta a question was is the formation for the Db chord comment me back when you got the chance thanks

+2 reply
akuisell wrote on February 14 2011, 12:33 pm

where is the solo?

I want to post or [tab]
guest
You may want to rate the tab now too:
select rating
Please do not post tabs as comments. Select "correction" instead!