Oops, an error
Loading. Please wait.

Im A Dog Tab

1,970 views 1 this week
1 commentread comment
1 2 3 4 5
1 last vote to show rating
add to favorites
launch autoscroll
font size
0
reset
how to read this tab
guitar tuner
Autoscroll
slow
fast
+/-
esc
set tempo
stop
Help us to improve Ultimate-Guitar.com Take our survey!
×
-----------------------------------------------------------------------------
                        IM' A DOG (Intro)- Kid Rock
-----------------------------------------------------------------------------
Tabbed: by Ricky Privette
Email: creek582002@yahoo.com

Tuning: Standard

This riff begins the song but it pops up in different places throughout the song.


E|----------------------------------|
B|----------------------------------|
G|----------------------------------|
D|--2-----5-----2-----5---5---7-\---|
A|--2-x-x-5-x-x-2-x-x-5-x-5---7-\---|
E|--0-x-x-3-x-x-0-x-x-3-x-3---5-\---|


|x- Muted Note or Palm Mute
|\- Slide Down
=============================================================================
Suggest correction
Give kudos to tab author, rate the tab!
1 2 3 4 5
comments
print report bad tab
1 comment total.
0 reply
St.Angarrr 163 Sep 12, 2009 03:57 PM

Perfect except for you forgot the part where he goes
E|----------------------------------|
B|----------------------------------|
G|----------------------------------|
D|--2-----5-----2-----5---5---7-\---|
A|--2-x-x-5-x-x-2-x-x-5-x-5---7-\---|
E|--0-x-x-3-x-x-0-x-x-3-x-3---5-\---|You play that then the fill after a few times.Thats the only part you forgot the fill lol.No big deal though its.
e------------------------
b------------------------
g------------------------
d---7---6----5-----------
a------------------------
e------------------------
I think thats it man.

guest
You may want to rate the tab now too:
select rating
Wanna post a correction for this tab? Suggest correction