Oops, an error
Loading. Please wait.

Picture Tab

version 1
version 1

Whole song

Interactive

66,328 views 33 this week
2 commentsread comments
1 2 3 4 5
worth learning
x 13
add to favorites
launch autoscroll
font size
0
reset
how to read this tab
guitar tuner
Autoscroll
slow
fast
+/-
esc
set tempo
stop
Help us to improve Ultimate-Guitar.com Take our survey!
×
Intro: 
e|-3-3-----3-------|          Chords used:
B|-3---3-----3---3-|          G - 320033
G|-0---------------|         (G)- 320003 
D|-0---------------|          C - X32010 
A|-2---------------|          D - XX0323
E|-3-----3-----3---|

Verse 1:

Living my life in a slow hell, different girl every night 

at the hotel
                             C           G
I ain't seen the sun shine in three damn days
                                      C                                 D
Been fuelin' up on cocain and whisky, wish I had a good 

girl to miss me
                           C         G
Lord I wonder if I'll ever change my ways

Chorus: 
(G)                                   G   
I put your picture away, sat down and cried today
        D                     C             G
I can't look at you while I'm lyin' next to her
(G)                                      G
I put your picture away, sat down and cried today
        D                     C             G
I can't look at you while I'm lyin' next to her

Verse 2:
                                      C
I called you last night in the hotel, everyone knows but 

they won't tell
           D                                   C          G
That there half-wided smiles tell me something just ain't 

right
                                  C                                       D
I've been waitin' on you for a long time, fuelin' up on 

heartaches and cheap wine
                   C                 G
I ain't heard from you in three damn nights


Chorus:
(G)                               G
I put your picture away, I wonder where you been
        D                     C             G
I can't look at you while I'm lyin' next to him
(G)                               G   
I put your picture away, I wonder where you been
        D                     C             G
I can't look at you while I'm lyin' next to him

        
                  Solo:                                            
                                                       C
e|-------------------------------------------------------------------------------------
B|-----------------------------------------------------12h13-12------------15----------
G|-------------0-0-11h12-11----------11h12-11-------------------14-12-14b16--16b14-----
D|---------0h2--------------14-12-------------14-12-------------------------------(12)-
A|-----0-2------------------------14----------------14---------------------------------
E|-3-3---------------------------------------------------------------------------------
   D                      C              G
e|-14h15-14-12-------15-12----------------------------------------------------|
B|-------------15-12----------------------------------------------------------|
G|------------------------14b16-12h14p12--------------------------------------|
D|---------------------------------------12h14p12------------------X--X-------|
A|------------------------------------------------14-12----12-----14-14b15r14-|
E|------------------------------------------------------15----15--------------|
                                                            Verse 3:
G
I saw you yesterday with an old friend
           C                                  D
It was the same ole' same "how have you been"
                          C                     G
Since you've been gone my world's been dark and grey

You reminded me of brighter days
C
I hoped you where comin' home to stay
      D                C
I was headed to church
                       G
I was off to drink you away
                                    C                                  D
I thought about you for a long time, can't seem to get you off my mind
                                   C          G
I can't understand why we're living life this way

Chorus:
(G)                                      G
I found your picture today, I swear I'll change my ways
       D               C                      G
I just called to say I want you, to come back home
(G)                                      G
I found your picture today, I swear I'll change my ways
       D               C                      G
I just called to say I want you, to come back home
       D               C                   G
I just called to say I love you, come back home
Suggest correction
comments
print report bad tab
2 comments total.
+1 reply
skynyrd1515 160 wrote on March 26 2003, 12:00 am

the (G) in the chorus is a Em

0 reply
nickrimmele 10 wrote on December 24 2007, 06:22 pm

good call ^

guest
You may want to rate the tab now too:
select rating
Wanna post a correction for this tab? Suggest correction