Oops, an error
Loading. Please wait.

Roll On Bass Tab

2,392 views 6 this week
no commentswrite comment
1 2 3 4 5
please rate
add to favorites
launch autoscroll
font size
0
reset
guitar tuner
Tab Pro tools
  • play this tab
  • loop segment
  • change instrument
  • show fretboard
  • metronome
×
Best way to learn
"Roll On"
Autoscroll
slow
fast
+/-
esc
set tempo
stop
Contributor
----------------------------------------------------------------------------
			     SONG NAME - Band Name
----------------------------------------------------------------------------
Tabbed By : lilwelshrocker101

e-mail: WelshDragon-666@hotmail.com

Finally a ballad from Kid Rock.

Tuning:EADG

Intro (optional)
G|------------------|
D|------------------|
A|2~~~--------------|
E|----4~~~-2~~~-0~~~|

Verse (after drum fill) listen to guitar chords to work out timing
G|---------------------------|
D|---------------------------|
A|2~-2-2---------------------|
E|-------4~-4-4-2~-2-2-0~-0-0|

Breakdown (and i was having a good time...)
G|-------------|
D|-------------|
A|00000000-----|
E|--------0000~|

Chorus (Roll on Roll on...)x2
G|-------------------------------------5-|
D|---------------------------------5/7---|
A|2x--2-2---------4x--4-4---------------7|
E|--------2x--2-2---------0x--0-0--------|

then...

G|------------------------------|
D|------------------------------|
A|00000000-----------2~~~~------|
E|--------0000000000---------11\|

Verse
Breakdown
Link into Chorus
G|------------------|
D|----------9--9----|
A|0~~----7----7-----|
E|---------------11\|
Chorus

Link into Bridge after chorus (12's not 1,2)
G|-------|
D|-------|
A|121212\|
E|-------|

Alternate Chorus (do doo da...)
G|-------------------------------------|
D|------------------------------5/7-5--|
A|2x-222--------4x-444---------5-----7-|
E|-------2x-222--------0x-000---------7|

G|-------------------------------------------------------|
D|----------------------------191919-171717-151515-171717|
A|2x-222--------4x-444-----------------------------------|
E|-------2x-222--------0x-000----------------------------|

Bridge
G|----------------------14/16-14-----14/16-------|
D|------------------------------16---------16----|
A|--------00000000-2/14-----------14----------14\|
E|33333333---------------------------------------|

G|-------------------|
D|-------------------|
A|--------00000000-2~|
E|33333333-----------|

Pause

Verse (play this first time then the rest of the time ignore the first slide)
G|------------------------------------|
D|-----2/444--------------------------|
A|2x-2-------------4x-4-4-------7575--|
E|----------2x-2-2--------0x-00-----75|

Chorus
Chorus (Roll on Roll on...)x2
G|-------------------------------------5-|
D|---------------------------------5/7---|
A|2x--2-2---------4x--4-4---------------7|
E|--------2x--2-2---------0x--0-0--------|

then...
End on the B after played the first riff twice
G|--------------------------|-|
D|--------------------------|-|
A|00000000-----------222222-|2|
E|--------0000000000--------|-|

Then play
G|-------------------------------------5-|
D|---------------------------------5/7---|
A|2x--2-2---------4x--4-4---------------7|
E|--------2x--2-2---------0x--0-0--------|

until faded out.

This probably isnt 100% correct but it is close enough. The idea is very simple. Please 
comment and send me corrections.

Thank you all and keep rocking.


| /  slide up
| \  slide down
| h  hammer-on
| p  pull-off
| ~  vibrato
| +  harmonic
| x  Mute note
============================================================================
comments
We did not receive enough feedback on this tab! Please rate:
print report bad tab
1 2 3 4 5
I want to post or [tab]
guest
You may want to rate the tab now too:
select rating
Please do not post tabs as comments. Select "correction" instead!