Oops, an error
Loading. Please wait.

So Hott Bass Tab

version 2
version 2

Whole song

Interactive

3,083 views 3 this week
no commentswrite comment
1 2 3 4 5
2 more votes to show rating
add to favorites
launch autoscroll
font size
0
reset
guitar tuner
Autoscroll
slow
fast
+/-
esc
set tempo
stop
Help us to improve Ultimate-Guitar.com Take our survey!
×
Author
-------------------------------------------------------------------------------
			     So Hott - Kid Rock
-------------------------------------------------------------------------------

Tabbed By : jacobsj
e-mail: jacobsj@bgsu.edu

Tuning: Drop D

E-mail me or comment if something is wrong or you have questions

Intro pt. 1 (x4)

G|-------------------------------------------|
D|-------------------------------------------|
A|-------------------------------------------|
D|--0--3--0--5h6p5--0--3--0--0--0-3-0--------|

G|--------------------------------|
D|--------------------------------|
A|--------------------------------|
D|--0--3--0--5h6p5--0--3--0-------|

Intro pt. 2 (x4)

G|--------------------------------------------------|
D|--------------------------------------------------|
A|--------------------------------------------------|
D|--0--3--0--5h6p5--3--0--0--3--5--5h6p5--3---------|

Intro pt. 3 (x4)

G|--------------------------------|
D|--------------------------------|
A|-----5---------------3--1-------|
D|--0-----0--2--3--3--------3-----|

Verse 1 (x2)

G|--------------------------------|
D|--------------------------------|
A|--------------------------------|
D|--0--3--0--5h6p5--0--3--0-------|

Chorus (x3)

G|--------------------------------|
D|--------------------------------|
A|-----5---------------3--1-------|
D|--0-----0--2--3--3--------3-----|

Bridge (x2)

G|-------------------------------------------|
D|-------------------------------------------|
A|-------------------------------------------|
D|--0--3--0--5h6p5--0--3--0--0--0-3-0--------|

G|--------------------------------|
D|--------------------------------|
A|--------------------------------|
D|--0--3--0--5h6p5--0--3--0-------|

Verse 2 (x2)

G|--------------------------------|
D|--------------------------------|
A|--------------------------------|
D|--0--3--0--5h6p5--0--3--0-------|

Chorus (x3)

G|--------------------------------|
D|--------------------------------|
A|-----5---------------3--1-------|
D|--0-----0--2--3--3--------3-----|

Solo (x4)

G|--------------------------------|
D|--------------------------------|
A|-----5---------------3--1-------|
D|--0-----0--2--3--3--------3-----|

Chorus (x6)

G|--------------------------------|
D|--------------------------------|
A|-----5---------------3--1-------|
D|--0-----0--2--3--3--------3-----|

Outro (x3)

G|--------------------------------|
D|--------------------------------|
A|-----5--------------------------|
D|--0-----0--2--3--5--7--5--5-----|

Ending

G|----------------------------------|
D|----------------------------------|
A|-----5----------------------------|
D|--0-----0--2--3--5--7--5--5~------|


| /  slide up
| \  slide down
| h  hammer-on
| p  pull-off
| ~  vibrato
| +  harmonic
| x  Mute note
===============================================================================
Suggest correction
Give kudos to tab author, rate the tab!
1 2 3 4 5
comments
print report bad tab
guest
You may want to rate the tab now too:
select rating
Wanna post a correction for this tab? Suggest correction