Oops, an error
Loading. Please wait.

Pulaski Day Chords

159 views 1 this week
no commentswrite comment
1 2 3 4 5
3 more votes to show rating
add to favorites
×
Save as Personal and add changes to this tab that will be seen only by you. Learn more ›
×
You can save this tab as Personal to edit and correct it or add notes. All changes will be seen only by you. Learn more »
save as personal
new!
launch autoscroll
font size
0
reset
transpose
0
reset
display chords
guitar tuner
Autoscroll
slow
fast
+/-
esc
set tempo
stop
Author
Difficulty
Tuning
novice
D G C F A D
Strumming
There is no strumming pattern for this song yet. and get +5 IQ
http://www.youtube.com/watch?v=8PehRPYbhCg


Artist : Kidd Russell             
Song   : "Pulaski Day"            
                                  
Tuning : DGCFAd (Whole Step DOWN) 
Capo   : Nope

Tabbed By : Chester Abellera (^-^)




[Chords]
(Progression played throughout the whole song)
  
    E    B   Ebm   A
d---0----7----6----5---|          
A---0----7----7----5---|          
F---1----8----8----6---|          
C---2----9----8----7---|          
G---2----9----6----7---|          
D---0----7----x----5---|          

d--------|
A---12---|
F---x----|
C---9----|   
G--------|
D--------|
Played solely during the interlude





If you don't want to tune your guitar down, here are the chords
for Standard Tuning (EADGBe) =)

    D    A   C#m   G
e---2----5----4----3---|   
B---3----5----5----3---|        
G---2----6----6----4---|        
D---0----7----6----5---|     
A---0----7----4----5---|       
E--------5----x----3---|

d--------|
A---9----|
F---x----|
C---7----|   
G--------|
D--------|
Played solely during the interlude        
Suggest correction
Give kudos to tab author, rate the tab!
1 2 3 4 5
comments
print report bad tab
guest
You may want to rate the tab now too:
select rating
Wanna post a correction for this tab? Suggest correction