Oops, an error
Loading. Please wait.

Girls intro tab

version 1
version 1

Intro

Whole song

2,089 views 1 this week
3 commentsread comments
1 2 3 4 5
1 last vote to show rating
add to favorites
×
Save as Personal and add changes to this tab that will be seen only by you. Learn more ›
×
You can save this tab as Personal to edit and correct it or add notes. All changes will be seen only by you. Learn more »
launch autoscroll
font size
0
reset
how to read this tab
guitar tuner
edit
Autoscroll
slow
fast
+/-
esc
set tempo
stop
Difficulty
intermediate
This is my first tab but it sounds right. I'll put the rest up next week :) enjoy.

|-7-7-7--7-7-7--|--4-4-4-4--5-5--4---------|
|-9-9-9--9-9-9--|--5-5-5-5--5-5--5---------|
|---------------|--------------------------|     Play this part twice
|---------------|--------------------------|
|---------------|--------------------------|
|---------------|--------------------------|

|--4-4--2-2--5-5--4-4--2-4-2----|
|--5-5--4-4--5-5--5-5--4-4-4----|
|-------------------------------|    I think this part is played 7 times. (just use your ears)
|-------------------------------|
|-------------------------------|
|-------------------------------|

As i said earlier i'll put the rest up next week :) 

            
            
Suggest correction
Creating personal tab
Creating personal tab
You can edit any tab online and save it as your Personal.

You can edit, replace or remove any tab part or add personal notes – all changes will be seen only by you.

Personal tabs can be accessed anytime from any device, even offline.
Learn more »
Give kudos to tab author, rate the tab!
1 2 3 4 5
comments
print report bad tab
3 comments total.
0 reply
Andy_strat 57 Sep 02, 2008 04:49 AM

just sounds wrong

0 reply
Meteorajoe 31 Sep 30, 2008 12:47 PM

the first bit is right
but the second bit isnt
the e string notes are correct, the b string notes arent needed

0 reply
doubtfull 30 Feb 22, 2009 10:55 AM

|-12-12-12-12-12-12---|--4-4-4-4--5-5--4---------|
|-12-12-12-12-12-12---|--5-5-5-5--5-5--5---------| x2
|---------------------|--------------------------|
|---------------------|--------------------------|
|---------------------|--------------------------|
|---------------------|--------------------------|

|--4-4--2-2--5-5--4-4--2-4-2----|
|--5-5--4-4--5-5--5-5--4-4-4----|
|-------------------------------| x2
|-------------------------------|
|-------------------------------|
|-------------------------------|

|-------------------------------|
|--5/7-7-7-7-7-5-5h7-5p0--------|
|-------------------------------| x2
|-------------------------------|
|-------------------------------|
|-------------------------------|

|--4-4--2-2--5-5--4-4--2-4-2----|
|--5-5--4-4--5-5--5-5--4-4-4----|
|-------------------------------|
|-------------------------------| x2
|-------------------------------|
|-------------------------------|

|-------------------------------|
|--5/7-7-7-7-7-5-5h7-5p0--------|
|-------------------------------|
|-------------------------------|
|-------------------------------|
|-------------------------------|

|-------------------------------|
|--5/7-7-7-7-7------------------|
|-------------------------------|
|-------------------------------|
|-------------------------------|
|-------------------------------|

guest
Wanna post a correction for this tab? Suggest correction