Oops, an error
Loading. Please wait.

Good Boys Gone Rad bass

521 views 3 this week
no commentswrite comment
1 2 3 4 5
2 more votes to show rating
add to favorites
×
Save as Personal and add changes to this tab that will be seen only by you. Learn more ›
×
You can save this tab as Personal to edit and correct it or add notes. All changes will be seen only by you. Learn more »
launch autoscroll
font size
0
reset
guitar tuner
edit
Autoscroll
slow
fast
+/-
esc
set tempo
stop
Author
Difficulty
Kids In Glass Houses
Good Boys Gone Rad
Bass Tab
Created - 30th december 2009
black_kandy or zacharyhatton@hotmail.co.uk
pretty easy tab please rate !!! hope its detailed enough for you

G----------------------------------------------------------------|
D----------------------------------------------------------------|
A-------5-----------------------5--------------------------------|
E---7-------3---7---5---3---7-------3---7---5---3333333333333333-|

G-------------------------------|       The 33 is the two power chords you hear after the
D-------------------------------|       guitar play on its own and he sings "Burn the liars!"
A-------------------------------|
E-----------------------------33|

Everybody knows this word is crazy
G------------------------------|
D------------------------------|
A------------------------------|
E------------------------------|

Start a fire
G------------------------------|
D------------------------------|
A------------------------------|
E------------------------------|

Its gettin hot inside your head tonight alright
G------------------------------|
D------------------------------|
A------------------------------|
E------------------------------|

Sugar on your lips
G------------------------------|
D------------------------------|
A------------------------------|
E------------------------------|

They put the lemon on your tongue
G------------------------------|
D------------------------------|
A------------------------------|
E------------------------------|

They out the price upon the drinks you sip
G------------------------------|
D------------------------------|
A------------------------------|
E------------------------------|

And name the short ones after guns
G------------------------------|
D------------------------------|
A------------------------------|
E------------------------------|

Chorus :
G--------------------------------------------------------------------|
D--------------------------------------------------------------------|    X2
A--------------------------------------------------------55555555----|
E-77777777777777775555555555555555333333333333333355555555-----------|

No bass till first line of second verse

G-------------------------------|       The 33 is the two power chords you hear after the
D-------------------------------|       guitar play on its own and he sings "Learn your lines!"
A-------------------------------|
E-----------------------------33|

Before somebody says your getting lazy
G------------------------------|
D------------------------------|
A------------------------------|
E------------------------------|

Friends for hire
G------------------------------|
D------------------------------|
A------------------------------|
E------------------------------|

Its hot as hell in the desert tonight alright
G------------------------------|
D------------------------------|
A------------------------------|
E------------------------------|

Lipstick on your chest
G------------------------------|
D------------------------------|
A------------------------------|
E------------------------------|

They put the poison in your glass
G------------------------------|
D------------------------------|
A------------------------------|
E------------------------------|

They put the price upon the head you gave
G------------------------------|
D------------------------------|
A------------------------------|
E------------------------------|

And take the rest no need to ask
G------------------------------|
D------------------------------|
A------------------------------|
E------------------------------|


Chorus :
G--------------------------------------------------------------------|
D--------------------------------------------------------------------|    X2
A--------------------------------------------------------55555555----|
E-77777777777777775555555555555555333333333333333355555555-----------|

G----------------------------------------------------------------|
D----------------------------------------------------------------|
A-------5-----------------------5--------------------------------|
E---7-------3---7---5---3---7-------3---7---5---3333333333333333-|

G-------------------------------|       The 33-| is the two power chords you hear after the
D----------------------------------------------|   guitar play on its own before he starts singing
A----------------------------------------------|       "Play d-e-a-d its easy!"
E-----------------------------33---------------|

Play d-e-a-d its easy
G------------------------------|
D------------------------------|
A------------------------------|
E------------------------------|

Play d-e-a-d its easy
G------------------------------|
D------------------------------|
A------------------------------|
E------------------------------|

Play d-e-a-d its easy
G------------------------------|
D------------------------------|
A------------------------------|
E------------------------------|

Play d-e-a-d its easy
G------------------------------|
D------------------------------|
A------------------------------|
E------------------------------|

Play d-e-a-d its easy
G------------------------------|
D------------------------------|
A------------------------------|
E------------------------------|

Play d-e-a-d its easy
G------------------------------|
D------------------------------|
A------------------------------|
E------------------------------|

Play d-e-a-d its easy
G------------------------------|
D------------------------------|
A------------------------------|
E------------------------------|

Play d-e-a-d its easy
G------------------------------|
D------------------------------|
A------------------------------|
E------------------------------|

Chorus :
G--------------------------------------------------------------------|
D--------------------------------------------------------------------|    X2
A--------------------------------------------------------55555555----|
E-77777777777777775555555555555555333333333333333355555555-----------|

G--------------------------------------------------------------|
D--------------------------------------------------------------|
A--------------------------------------------------------------|
E--77----77----77----------------------------------------------|

the guitar goes

G----99----99----|
D----99----99----|
A-77----77----77-|
E-77----77----77-|

The bass only plays the 7's on the E string
Suggest correction
Creating personal tab
Creating personal tab
You can edit any tab online and save it as your Personal.

You can edit, replace or remove any tab part or add personal notes – all changes will be seen only by you.

Personal tabs can be accessed anytime from any device, even offline.
Learn more »
Give kudos to tab author, rate the tab!
1 2 3 4 5
comments
print report bad tab
guest
You may want to rate the tab now too:
select rating
Wanna post a correction for this tab? Suggest correction