Oops, an error
Loading. Please wait.

Good Boys Gone Rad tab

version 1
version 1

Whole song

3,230 views 1 this week
5 commentsread comments
1 2 3 4 5
2 more votes to show rating
add to favorites
×
Save as Personal and add changes to this tab that will be seen only by you. Learn more ›
×
You can save this tab as Personal to edit and correct it or add notes. All changes will be seen only by you. Learn more »
launch autoscroll
font size
0
reset
how to read this tab
guitar tuner
edit
Autoscroll
slow
fast
+/-
esc
set tempo
stop
Author
Kids In Glass Houses - Good Boys gone Rad

Album:Smart Casual
Instrument: Guitar
Tuning: eBGDAE

Tabbed By: JJ

joshuaarmstrong@hotmail.co.uk

Intro

e||-------------------------|
B||-------------------------|
G||-------------------------|
D||------7------------------|  X2
A||--9---5---5----9--7--5---|
E||--7-------3----7--5--3---|


Verse

e||-----------------|
B||-----------------|
G||-----------------|
D||-----------------|
A||-----------------|
E||--7h10---5p3-0---|  X8


Chorus

e||-------------------------------------|
B||-------------------------------------|
G||-------------------------------------|
D||-----------------------------7-------|
A||--9------7------5------7-----5-X8----|   (not sure about ending but sounds alright)
E||--7-X16--5-X16--3-X16--5-X8----------|


Chorus Ending
G||------9-9--|
D||------9-9--|
A||--7-7------|
E||--7-7------| X4


2ND VERSE
e||-----------------|
B||-----------------|
G||-----------------|
D||-----------------|
A||-----------------|
E||--7h10---5p3-0---|  X8


Chorus

e||-------------------------------------|
B||-------------------------------------|
G||-------------------------------------|
D||-----------------------------7-------|
A||--9------7------5------7-----5-X8----|
E||--7-X16--5-X16--3-X16--5-X8----------|


Intro
e||-------------------------|
B||-------------------------|
G||-------------------------|
D||------7------------------|  X2
A||--9---5---5----9--7--5---|
E||--7-------3----7--5--3---|

Outro

e||-------------------------|
B||-------------------------|
G||-------------------------|
D||-------------------------|
A||-----------5-------------|
E||--5--7--5-----7--5--3--0-| X 10

Chorus

e||-------------------------------------|
B||-------------------------------------|
G||-------------------------------------|
D||-----------------------------7-------|
A||--9------7------5------7-----5-X8----|
E||--7-X16--5-X16--3-X16--5-X8----------|




_____________________

            
            
Suggest correction
Creating personal tab
Creating personal tab
You can edit any tab online and save it as your Personal.

You can edit, replace or remove any tab part or add personal notes – all changes will be seen only by you.

Personal tabs can be accessed anytime from any device, even offline.
Learn more »
Give kudos to tab author, rate the tab!
1 2 3 4 5
comments
print report bad tab
5 comments total. Showing first comments.
0 reply
LewisMasonx 1,741 Jun 20, 2008 08:33 AM

I think that last chord you're looking for in the chorus is:

A|-8-|
E|-6-|

Also, for the bridge, a slight correction, I think playing:

A|-------5-
E|-7-5-7---

works slightly better. Other than that, nice tab! :)

0 reply
brokenunder 364 Jun 22, 2008 06:38 AM

e||-------------------------------------|
B||-------------------------------------|
G||-------------------------------------|
D||-----------------------------4-------|
A||--9------7------5------4-----1-X8----|
E||--7-X16--5-X16--3-X16--2-X8----------|

i thought the chorus sounded better like this

+1 reply
AS90 10 Jul 07, 2008 06:16 AM

I found the verse sounds better as...

e||-----------------|
B||-----------------|
G||-----------------|
D||-----------------|
A||--2h5------------|
E||------2h3-0------|

I agree with brokenunder in the chorus, but slightly easier as...

e||-------------------------------------|
B||-------------------------------------|
G||-------------------------------------|
D||-------------------------------------|
A||--9------7------5------4-----9-------|
E||--7-X16--5-X16--3-X16--2-X8--6-X8----|

and the "play D.E.A.D" bridge part as...

B||---------------------|
G||---------------------|
D||---------------------|
A||--------5-0----------|
E||-7-5-7-------2h3--0--|

guest
You may want to rate the tab now too:
select rating
Wanna post a correction for this tab? Suggest correction